» » »

Anchors Away Tabs (ver.1)

Artists:  A B C D E F G H I J K L M N O P Q R S T U V W X Y Z # 

Anchors Away Tabs (ver.1)

Weatherbox
Rating:
0/5 (0 votes)

Hard to play? Try these video lessons and learn fast.
                Weatherbox
"Anchors Away"
Unreleased

Tuning: Db Ab Db F Ab Eb

I freaking love this song! This is what I came up with after
watching Brian play it on "A Trolley Show" about two-hundred times.
The strumming is pretty fast so you'll have to listen to the song
carefully to get the rhythm down.


difference. Tune your high E string to Eb instead of Db!!


Intro: (x2)

Eb--0-0-0-0-0-0-0-0----0-0-0-0--0-0-0-0----0-0-0-0-0-0-0-0-0-0-0-0-0-0-0-0--|
Ab--0-0-0-0-0-0-0-0----0-0-0-0--0-0-0-0----0-0-0-0-0-0-0-0-0-0-0-0-0-0-0-0--|
F --0-0-0-0-0-0-0-0----8-8-8-8--7-7-7-7----0-0-0-0-0-0-0-0-0-0-0-0-0-0-0-0--|
Db--4-4-4-4-4-4-4-4----7-7-7-7--7-7-7-7----x-x-x-x-x-x-x-x-x-x-x-x-x-x-x-x--|
Ab--5-5-5-5-5-5-5-5----0-0-0-0--0-0-0-0----2-2-2-2-2-2-2-2-2-2-2-2-2-2-2-2--|
Db--x-x-x-x-x-x-x-x----x-x-x-x--x-x-x-x----x-x-x-x-x-x-x-x-x-x-x-x-x-x-x-x--|


Verse: (x4)
"The captain steals..."

Eb--0-0-0-0-0-0-0-0----0-0-0-0--0-0-0-0----0-0-0-0-0-0-0-0-0-0-0-0-0-0-0-0--|
Ab--0-0-0-0-0-0-0-0----0-0-0-0--0-0-0-0----0-0-0-0-0-0-0-0-0-0-0-0-0-0-0-0--|
F --0-0-0-0-0-0-0-0----8-8-8-8--7-7-7-7----0-0-0-0-0-0-0-0-0-0-0-0-0-0-0-0--|
Db--4-4-4-4-4-4-4-4----7-7-7-7--7-7-7-7----x-x-x-x-x-x-x-x-x-x-x-x-x-x-x-x--|
Ab--5-5-5-5-5-5-5-5----0-0-0-0--0-0-0-0----2-2-2-2-2-2-2-2-2-2-2-2-2-2-2-2--|
Db--x-x-x-x-x-x-x-x----x-x-x-x--x-x-x-x----x-x-x-x-x-x-x-x-x-x-x-x-x-x-x-x--|


Pre-Chorus: (x4)
"The way I could..."

Eb--x-x-x-x-x-x-x-x----0-0-0-0--0-0-0-0----0-0-0-0-0-0-0-0-0-0-0-0-0-0-0-0--|
Ab--x-x-x-x-x-x-x-x----0-0-0-0--0-0-0-0----0-0-0-0-0-0-0-0-0-0-0-0-0-0-0-0--|
F --0-0-0-0-0-0-0-0----8-8-8-8--7-7-7-7----0-0-0-0-0-0-0-0-0-0-0-0-0-0-0-0--|
Db--7-7-7-7-7-7-7-7----7-7-7-7--7-7-7-7----3-3-3-3-3-3-3-3-3-3-3-3-3-3-3-3--|
Ab--0-0-0-0-0-0-0-0----0-0-0-0--0-0-0-0----x-x-x-x-x-x-x-x-x-x-x-x-x-x-x-x--|
Db--x-x-x-x-x-x-x-x----x-x-x-x--x-x-x-x----4-4-4-4-4-4-4-4-4-4-4-4-4-4-4-4--|


Chorus: (x4)
"Oh anchors away..."

Eb--0-0-0-0-0-0-0-0----0-0-0-0-0-0-0-0----0-0-0-0-0-0-0-0-0-0-0-0-0-0-0-0--|
Ab--0-0-0-0-0-0-0-0----0-0-0-0-0-0-0-0----0-0-0-0-0-0-0-0-0-0-0-0-0-0-0-0--|
F --0-0-0-0-0-0-0-0----0-0-0-0-0-0-0-0----3-3-3-3-3-3-3-3-3-3-3-3-3-3-3-3--|
Db--2-2-2-2-2-2-2-2----3-3-3-3-3-3-3-3----0-0-0-0-0-0-0-0-0-0-0-0-0-0-0-0--|
Ab--x-x-x-x-x-x-x-x----x-x-x-x-x-x-x-x----0-0-0-0-0-0-0-0-0-0-0-0-0-0-0-0--|
Db--2-2-2-2-2-2-2-2----4-4-4-4-4-4-4-4----0-0-0-0-0-0-0-0-0-0-0-0-0-0-0-0--|


Bridge Pt. 1: (x4)
"You don't know..."

Eb--0-0-0-0-0-0-0-0----x-x-x-x-x-x-x-x----x-x-x-x-x-x-x-x-x-x-x-x-x-x-x-x--|
Ab--0-0-0-0-0-0-0-0----0-0-0-0-0-0-0-0----x-x-x-x-x-x-x-x-x-x-x-x-x-x-x-x--|
F --0-0-0-0-0-0-0-0----7-7-7-7-7-7-7-7----7-7-7-7-7-7-7-7-7-7-7-7-7-7-7-7--|
Db--4-4-4-4-4-4-4-4----7-7-7-7-7-7-7-7----7-7-7-7-7-7-7-7-7-7-7-7-7-7-7-7--|
Ab--5-5-5-5-5-5-5-5----5-5-5-5-5-5-5-5----4-4-4-4-4-4-4-4-4-4-4-4-4-4-4-4--|
Db--x-x-x-x-x-x-x-x----x-x-x-x-x-x-x-x----4-4-4-4-4-4-4-4-4-4-4-4-4-4-4-4--|


Bridge Pt. 2: (x1)
"You creep me out..."

Eb--0---------0---------0---------|
Ab--0---------0---------0---------|
F --0--(x16)--0--(x16)--3--(x32)--|
Db--2---------3---------0---------|
Ab--x---------x---------0---------|
Db--2---------4---------0---------|


Play Bridge Pt. 1 (x2)

Play Bridge Pt. 2 (x1)


Bridge Pt. 3: (x6)
"I have a lover..."

Eb--0---------0---------0--------|
Ab--0---------0---------0--------|
F --0--(x16)--0--(x16)--3-(x32)--|
Db--3---------2---------0--------|
Ab--x---------x---------0--------|
Db--4---------2---------0--------|


Play Chorus (x4)

Play Bridge Pt. 1 (x2)


Sorry that I kind of shortened things up a bit at the end. A lot of
the chords are strummed repeatedly for a long period of time, so it
would take up a lot of space to tab them. The band is recording right
now so hopefully this gem will end up on Weatherbox's new record!
Don't forget to rate and comment/correct!
            
Hard to play? Try these video lessons and learn fast. | Correct




comments powered by Disqus
↑ Back to top | Tablatures and chords are parodies/interpretations of the original songs. You may use it for private study, scholarship, research or language learning purposes only