>
 >
A Flock Of Weatherboxes

A Flock Of Weatherboxes Guitar Tabs

Weatherbox - A Flock Of Weatherboxes chords, tabs, tablatures, lyrics

Guitar lessons | Add/correct | Request | Top 50 tabs Artists:  A B C D E F G H I J K L M N O P Q R S T U V W X Y Z 0-9

A Flock Of Weatherboxes Guitar Tabs – Weatherbox

CD, Sheet music, Poster

Do you like A Flock Of Weatherboxes? Share with your friends now
Tabs
-------------------------------------------------------------------------------
                      WEATHERBOX- A Flock of Weatherboxes
-------------------------------------------------------------------------------

Tuning: DADGAD

I promise this is at least 99% correct. I may be a little off on which guitar does what 
part though.

There are more than 2 guitars playing at various points in the song, but I'm only 
tabbing the main parts.

Hint: the other one's seem to be just octave chords, so they shouldn't be too hard to 
figure out.

Intro-

Guitar 1:
d|--------------------------|--------------------------|
A|----8-----8-----8-----8---|----5-----5-----5-----5---|
G|------7-----7-----7-----7-|------3-----3-----3-----3-|
D|-/8-----8-----8-----8-----|-\5-----5-----5-----5-----|
A|--------------------------|--------------------------|
D|--------------------------|--------------------------|

Guitar 2 (enter on 2nd repeat of Guitar 1):
d|-------------------------|-------------------------|-------------------------|
A|-1-1-1-1-1-1-1-1-1-1-1-1-|-1-1-1-1-1-1-3-3-3-3-3-3-|-5-5-5-5-5-5-6-6-6-5-5-5-|
G|-------------------------|-------------------------|-------------------------|
D|-------------------------|-------------------------|-------------------------|
A|-------------------------|-------------------------|-------------------------|
D|-------------------------|-------------------------|-------------------------|

d|-------------------------------------|--------------------------------------|
A|-13-13-13-13-13-13-15-15-15-15-15-15-|-17-17-17-17-17-17-18-18-18-17-17-17--|
G|-------------------------------------|--------------------------------------|
D|-------------------------------------|--------------------------------------|
A|-------------------------------------|--------------------------------------|
D|-------------------------------------|--------------------------------------|

Verse-

[Guitar 1 sits out the verse]

Guitar 2:
d|-------------------|-------------------|-------------|-------------|
A|-------------------|-------------------|-------------|-------------|
G|-10-10-10-10-10-10-|-12-12-12-12-12-12-|-5-5-5-5-5-5-|-7-7-7-7-7-7-|
D|--x--x--x--x--x--x-|--x--x--x--x--x--x-|-x-x-x-x-x-x-|-x-x-x-x-x-x-|
A|--8--8--8--8--8--8-|-10-10-10-10-10-10-|-3-3-3-3-3-3-|-5-5-5-5-5-5-|
D|-------------------|-------------------|---------------------------|

Chorus part 1-

Guitar 1:
d|--------------------------|
A|--------------------------|
G|--------------------------|
D|-1--1p0-1p0-1/3-3-3-3-3-3-|
A|-1--1p0-1p0-1/3-3-3-3-3-3-|
D|-1--1p0-1p0-1/3-3-3-3-3-3-|

d|-----------------------|
A|-----------------------|
G|-----------------------|
D|-5--5-5-5-5-3--3-3-3-3-|
A|-5--5-5-5-5-3--3-3-3-3-|
D|-5--5-5-5-5-3--3-3-3-3-|

Guitar 2:
d|----------------------------|
A|----------------------------|
G|-8--8--8-7-8/10-10-10-10-10-|
D|-x--x--x-x-x-----x--x--x--x-|
A|-6--6--6-5-6/-8--8--8--8--8-|
D|----------------------------|

d|---------------------------------|
A|---------------------------------|
G|-12--12-12-12-12-10--10-10-10-10-|
D|--x---x--x--x--x--x---x--x--x--x-|
A|-10--10-10-10-10--8---8--8--8--8-|
D|---------------------------------|

Chorus part 2-

Guitar 1 (figure strumming out yourself):
d|-------------|-------------|
A|-------------|-------------|
G|-------------|-------------|
D|-1-1-1-1-1-1-|-5-5-5-5-5-5-|
A|-1-1-1-1-1-1-|-5-5-5-5-5-5-|
D|-1-1-1-1-1-1-|-5-5-5-5-5-5-|

Guitar 2:
d|-----------------------|-----------------------|
A|------8----------8-----|------5----------3-----|
G|--------7----------7---|--------3----------5---|
D|-8-888----8-8-888----8-|-5-555----5-5-555----5-|
A|-----------------------|-----------------------|
D|-----------------------|-----------------------|

Post-Chorus part 1-

Guitar 1:
d|-----------------|-----------------|
A|-----------------|-----------------|
G|---3---3---3---3-|-----------------|
D|-----------------|---3---3---3---3-|
A|-----------------|-----------------|
D|-5---5---5---5---|-1---1---1---1---|

Guitar 2:
d|------------------|------------------|
A|------------------|------------------|
G|------------7-----|------------7---8-|
D|---8---10-------8-|---8---10---------|
A|------------------|------------------|
D|-8---8----8---8---|-8---8----8---8---|

Post-Chorus part 2-

[Guitar 1 continues playing same part as before]

Guitar 2:
d|------------------|
A|-------8---10-----|
G|---8--------------|
D|----------------8-|
A|------------------|
D|-8---8---8----8---|

[Repeat Chorus]

Bridge-

Guitar 1:
d|--------------------------|--------------------------|
A|----8-----8-----8-----8---|----5-----5-----5-----5---|
G|------7-----7-----7-----7-|------3-----3-----3-----3-|
D|-/8-----8-----8-----8-----|-\5-----5-----5-----5-----|
A|--------------------------|--------------------------|
D|--------------------------|--------------------------|

Guitar 2:
d|-------------------|-------------------|-------------|-------------|
A|-------------------|-------------------|-------------|-------------|
G|-10-10-10-10-10-10-|-12-12-12-12-12-12-|-5-5-5-5-5-5-|-7-7-7-7-7-7-|
D|--x--x--x--x--x--x-|--x--x--x--x--x--x-|-x-x-x-x-x-x-|-x-x-x-x-x-x-|
A|--8--8--8--8--8--8-|-10-10-10-10-10-10-|-3-3-3-3-3-3-|-5-5-5-5-5-5-|
D|-------------------|-------------------|---------------------------|

[Repeat Chorus]

Ending part 1-

Guitar 1:
d|-----------------|-----------------|
A|-----------------|-----------------|
G|---3---3---3---3-|-----------------|
D|-----------------|---3---3---3---3-|
A|-----------------|-----------------|
D|-5---5---5---5---|-1---1---1---1---|

Guitar 2:
d|------------------|------------------|
A|------------------|------------------|
G|------------7-----|------------7---8-|
D|---8---10-------8-|---8---10---------|
A|------------------|------------------|
D|-8---8----8---8---|-8---8----8---8---|

Ending part 2-

Guitar 1:
d|---------------------|---------------------|
A|---------------------|---------------------|
G|---3---3---3p0-5p0-3-|---------------3-3p0-|
D|---------------------|---3---3---3/5-------|
A|---------------------|---------------------|
D|-5---5---5-----------|-1---1---1-----------|

d|---------------------|-----------------|
A|---------------------|-----------------|
G|---3---3---3p0-5p0-3-|-----------------|
D|---------------------|---3---3---3---3-|
A|---------------------|-----------------|
D|-5---5---5-----------|-1---1---1---1---|

[Guitar 2 continues playing the same part]


************************************

| /   slide up
| \   slide down
| h   hammer-on
| p   pull-off
| ~   vibrato
| +   harmonic
| x   Mute note
| b   Bend
| pb  Pre-bend
| br  Bend release
| pbr Pre-bend release
| brb Bend release bend

************************************





Comments


Popular Weatherbox tabs & chords
Armed To The Teeth Tabs
Drop The Mike 1 Tabs
Heavy Map Tabs
Is Nice Tabs
King Friend Tabs
Love Me A Good Microcosm Tabs
Snakes Our Ground Tabs
That Mann Tabs
The Dreams Tabs
Trippin' The Life Fantastic 1 Tabs


Song lyrics



↑ Back to top | Tablatures and chords are parodies/interpretations of the original songs. You may use it for private study, scholarship, research or language learning purposes only
© 2014 AZChords.com Contact us | Privacy policy | DMCA | Add/correct tabs | Request tabs | Top 50 tabs