» » »

We Are The Ocean, The Waiting Room Bass tabs (ver.1)

Artists:  A B C D E F G H I J K L M N O P Q R S T U V W X Y Z # 

The Waiting Room Bass tabs (ver.1)

We Are The Ocean Tabs
Rating:
5/5 (2 votes)
The Waiting Room lessons Tabs too difficult? Try these video lessons and learn fast
                -------------------------------------------------------------------------------
-------------------------------------------------------------------------------

Awesome song and very simple to play.


Tuning: Standard

1st Verse

G|---------------------------------------------------------------|
D|---------------------------------------------------------------|
A|---------------------------------------------------------------| (x4)
E|-7-7-7-7-7-7-7-7-7-7-7-7-7-7-7-5-5-5-5-5-5-5-5-5-5-5-5-5-5-5-5-|

1st Chorus

G|-------|
D|-------|
A|-------|
E|-7>>>--|

G|-------------------------------------------------------------------------------|
D|-------------------------------------------------------------------------------|
A|-------------------------------------------------------------------------------|
E|-3(X16)-5(x16)-7(x8)-5(x8)-3(x32)-(5x16)-7(x8)-5(x8)-3(x16)-7(x8)-5(x8)-3(x16)-|

2nd Verse

On the repeat of this verse the rhythm changes, its pretty easy to learn
how from listening to the song.

G|---------------------------------------------------------------|
D|---------------------------------------------------------------| (x2)
A|---------------------------------------------------------------|
E|-7-7-7-7-7-7-7-7-7-7-7-7-7-7-7-5-5-5-5-5-5-5-5-5-5-5-5-5-5-5-5-|

2nd Chorus

G|----------|
D|-9>>------|
A|-----9>>--|
E|----------|

G|------------------------------------------------|
D|------------------------------------------------|
A|---------------------5---4-------5-4-2----------| x(2)
E|-3(X16)-5(x16)-7-7-7---7---5-5-5-------5-3(x16)-|

G|----------------------------------|
D|----------------------------------|
A|-------5---4-------5-4-2----------|
E|-7-7-7---7---5-5-5-------5-3(x16)-|

Solo

G|----------------------|
D|----------------------|
A|----------------------|
E|-7(The whole solo)----|

Breakdown

G|--------------------------------------------------|
D|--------------------------------------------------|
A|--------------------------------------------------|
E|-3>>----------7>>----------3>>----------5>>-------|

3rd Chorus

Hold...

G|----------------------------------|
D|----------------------------------|
A|-------5---4-------5-4-2----------|
E|-7-7-7---7---5-5-5-------5-3(x16)-|

G|------------------------------------------------|
D|------------------------------------------------|
A|---------------------5---4-------5-4-2----------|
E|-3(X16)-5(x16)-7-7-7---7---5-5-5-------5-3(x16)-|

G|----------------------------------|
D|----------------------------------|
A|-------5---4-------5-4-2----------|
E|-7-7-7---7---5-5-5-------5-3(x16)-|

End

G|------------------------------|
D|------------------------------|
A|------------------------------|
E|-7--7--7--7--7--7--7--5-5-5-7-|


| >  hold note
| /  slide up
| \  slide down
| h  hammer-on
| p  pull-off
| ~  vibrato
| +  harmonic
| x  Mute note
===============================================================================
            

comments powered by Disqus
↑ Back to top | We Are The Ocean Bass for The Waiting Room. Lyrics for acoustic guitar and electric guitar. Tablatures and chords are parodies/interpretations of the original songs. You may use it for private study, scholarship, research or language learning purposes only