» » »

The Road Bass tabs (ver.1)

Artists:  A B C D E F G H I J K L M N O P Q R S T U V W X Y Z # 

The Road Bass tabs (ver.1)

We Are The Ocean
Rating:
0/5 (0 votes)
Tabs too difficult? Try these video lessons and learn fast.
                0:19
G|-----------------------------------------------------------------|
D|-----------------------------------------------------------------|
A|-0-2-0-2-----0-2-0-2-2-2-2-2-2-2-0-2-0-2-----0-2-0-2-2-2-2-2-2-2-|
E|-----------------------------------------------------------------|

0:25
G|-----------------------------------------------------------------|
D|-2---------------------------------------------------------------|
A|---2-0-2-2-2-0-2-0-2-2-2-2-2-2-2-0-2-0-2-2-2-0-2-0-2-2-2-2-2-2-2-|
E|-----------------------------------------------------------------|

0:32
G|-----------------------------------------------------------------|
D|-----------------------------------------------------------------|
A|-0---0---0---0-------------------2-2-2-2-2-2-2-2-2-2-2-2-2-2-2-2-|
E|-----------------0---0---0---0-----------------------------------|

0:38
G|-----------------------------------------------------------------|
D|-----------------------------------------------------------------|
A|-0---0---0---0---------------------------------------------------|
E|-----------------0---0---0---0---2-2-2-2-2-2-2-2-2-2-2-2-2-2-2-2-|

0:44
G|-----------------------------------------------------------------|
D|-----------------------------------------------------------------|
A|-2---2---2-2-2-2---2-2---2-2-2-2-0---0---0-0-0-0---0-0---0-0-0-0-|
E|-----------------------------------------------------------------|

G|-----------------------------------------------------------------|
D|-----------------------------------------------------------------|
A|---------------------------------------0-0-0-2-2-2-2-2-2-2-2-2-2-|
E|-0---0---0-0-0-0---0-0---0-0-0-0-2-2-2---------------------------|

0:57
G|-----------------------------------------------------------------|
D|-----------------------------------------------------------------|
A|-2---2---2-2-2-2---2-2---2-2-2-2-0---0---0-0-0-0---0-0---0-0-0-0-|
E|-----------------------------------------------------------------|

1:03
G|-----------------------------------------------------------------|
D|-----------------------------------------------------------------|
A|---------------------------------0-2-0-2-----0-2-0-2-2-2-2-2-2-2-|
E|-0---0---0-0-0-0---0-0---0-0-0-0---------------------------------|

1:09
G|-----------------------------------------------------------------|
D|-----------------------------------------------------------------|
A|-0-2-0-2-2-2-0-2-0-2-2-2-2-2-2-2-0-2-0-2-2-2-0-2-0-2-2-2-2-2-2-2-|
E|-----------------------------------------------------------------|

1:15
G|---------------------------------|
D|---------------------------------|
A|-0-2-0-2-2-2-0-2-0-2-2-2-2-2-2-2-|
E|---------------------------------|

1:18
G|-----------------------------------------------------------------|
D|-----------------------------------------------------------------|
A|---2-0-2-2-2-0-2-0-2-2-2-2-2-2-2-5-2-0-2-2-2-0-2-0-2-2-2-2-2-2-2-|
E|-----------------------------------------------------------------|

1:25
G|-----------------------------------------------------------------|
D|-----------------------------------------------------------------|
A|-5-2-0-2-2-2-0-2-0-2-2-2-2-2-2-2-5-2-0-2-2-2-0-2-5-2-0---2-0-----|
E|-------------------------------------------------------2-----2-0-|

1:31
G|-----------------------------------------------------------------|
D|-----------------------------------------------------------------|
A|-0-2-0-2-----0-2-0-2---------7-\-0-2-0-2-2-2-0-2-0-2-2-2-2-2-2-2-|
E|-----------------------------------------------------------------|

G|-----------------------------------------------------------------|
D|-----------------------------------------------------------------|
A|-0-2-0-2-2-2-0-2-0-2-2-2-2-2-2-2-0-2-0-2-2-2-0-2-0-2-2-2-2-2-2-2-|
E|-----------------------------------------------------------------|

1:44
G|-----------------------------------------------------------------|
D|-----------------------------------------------------------------|
A|-0---0---0---0-------------------2---2---2-2-2-2---2-2---2-2-2-2-|
E|-----------------0---0---0---0-----------------------------------|

1:50
G|-----------------------------------------------------------------|
D|-----------------------------------------------------------------|
A|-0---0---0---0---------------------------------------------------|
E|-----------------0---0---0---0---2---2---2-2-2-2---2-2---2-2-2-2-|

1:56
G|---------------------------------|
D|---------------------------------|
A|---------------------------------|
E|-2-2---5-5---7-7---7-7---7---7-\-|

1:59
G|-----------------------------------------------------------------|
D|-----------------------------------------------------------------|
A|-2---2---2-2-2-2---2-2---2-2-2-2-0---0---0-0-0-0---0-0---0-0-0-0-|
E|-----------------------------------------------------------------|

G|-----------------------------------------------------------------|
D|-----------------------------------------------------------------|
A|---------------------------------------0-0-0-2-2-2-2-2-2-2-2-2-2-|
E|-0---0---0-0-0-0---0-0---0-0-0-0-2-2-2---------------------------|

G|-----------------------------------------------------------------|
D|-----------------------------------------------------------------|
A|-2---2---2-2-2-2---2-2---2-2-2-2-0---0---0-0-0-0---0-0---0-0-0-0-|
E|-----------------------------------------------------------------|

G|-----------------------------------------------------------------|
D|-----------------------------------------------------------------|
A|---------------------------------------0-0-0-2-2-2-2-2-2-2-2-2-2-|
E|-0---0---0-0-0-0---0-0---0-0-0-0-2-2-2---------------------------|

2:24
G|---------------------------------|-------------------------------|
D|---------------------------------|-----let-ring-four-bars--------|
A|-------0-0-0-2-2-2-2-2-2-2-2-2-2-|-2-----------------------------|
E|-2-2-2---------------------------|-------------------------------|

2:49
G|-----------------------------------------------------------------|
D|-----------------------------------------------------------------|
A|-2-2-2-2-4-4-4-4-5-5-5-5-5-5-5-5-0-------------------------------|
E|-------------------------------------------------0---------------|

G|-----------------------------------------------------------------|
D|-----------------------------------------------------------------|
A|-2-2-2-2-2-2-2-2-2-2-2-2-2-2-2-2-0-0-0-0-0-0-0-0-----------------|
E|-------------------------------------------------0-0-0-0-0-0-0-0-|

G|---------------------------------|
D|---------------------------------|
A|---------------------------------|
E|-2-2---5-5---7-7---7-7---7---7-\-|

3:05
G|-----------------------------------------------------------------|
D|-----------------------------------------------------------------|
A|-2---2---2-2-2-2---2-2---2-2-2-2-0---0---0-0-0-0---0-0---0-0-0-0-|
E|-----------------------------------------------------------------|

G|-----------------------------------------------------------------|
D|-----------------------------------------------------------------|
A|---------------------------------------0-0-0-2-2-2-2-2-2-2-2-2-2-|
E|-0---0---0-0-0-0---0-0---0-0-0-0-2-2-2---------------------------|

G|-----------------------------------------------------------------|
D|-----------------------------------------------------------------|
A|-2---2---2-2-2-2---2-2---2-2-2-2-0---0---0-0-0-0---0-0---0-0-0-0-|
E|-----------------------------------------------------------------|

G|-----------------------------------------------------------------|
D|-----------------------------------------------------------------|
A|---------------------------------------0-0-0-2-2-2-2-2-2-2-2-2-2-|
E|-0---0---0-0-0-0---0-0---0-0-0-0-2-2-2---------------------------|

3:30
G|---------------------------------|
D|---------------------------------|
A|---------------------------------|
E|-2-2-2-5-5-5-7-7-7-7-7-7-7-7-7-7-|

G|-----------------------------------------------------------------|
D|-----------------------------------------------------------------|
A|-----------------------------------------------------------------|
E|-2-2---5-5---7-7---7-7---7---7---2-2---5-5---7-7---7-7---7---7-\-|
            
Tabs too difficult? Try these video lessons and learn fast.


comments powered by Disqus
↑ Back to top | Tablatures and chords are parodies/interpretations of the original songs. You may use it for private study, scholarship, research or language learning purposes only