» » »

We Are The In Crowd, Youve Got It Made Bass tabs (ver.1)

Artists:  A B C D E F G H I J K L M N O P Q R S T U V W X Y Z # 

Youve Got It Made Bass tabs (ver.1)

We Are The In Crowd Tabs
Rating:
0/5 (0 votes)
Youve Got It Made lessons Tabs too difficult? Try these video lessons and learn fast
                Bass Player: Mike Ferri
Tuning: D A D G



| /  slide up
| \  slide down
| h  hammer-on
| p  pull-off
| ~  vibrato
| +  harmonic
| x  Mute note
|  Bend note

Intro (Bass comes in at 0:25)


G|----------------------------------------------------------6-7--------6-7-----------|
D|--------------------------------5-5-------5-7-5-7-9-----------7-----------------/5-|
A|-/5---------5-5----4---------------------------------------------------------------|
D|------------------------5------------------------------------------------5---------|

Pre-Verse (0:49)

G|------------------------------------------------------------------|
D|----------------3-5----5--5-5--5-7----------------3-5----5--5-5---|
A|-5----5--5-5--5--------------------5----5--5-5--5-----------------|
D|------------------------------------------------------------------|

Verse (1:01)

G|----------------------------------------------------------------------|
D|----------------3-5----5--5-5--5-7----------------3-5----5--5-5--5-7--|
A|-5----5--5-5--5--------------------5----5--5-5--5---------------------|
D|----------------------------------------------------------------------|

G|--------------------------------------------------------------------|
D|--------------------------------------------------------------------|
A|-5---5--5-4---4--4-2-4-5---0-4-5------------------2--2--2-2-0--000--|
D|-----------------------------------2--2--2--2--22-------------------|

Pre-Chorus (1:26)

G|---------------------------------------|
D|----------------------------7777-7777--|
A|---------------------------------------|
D|-2-2-2-2--4-4-4-4--5-5-5-5-------------|

Chorus (1:32)

G|------------------------------------------------------------------------|
D|------------------------------------------------------------------------|
A|---------------------------5555-4444------------------------------------|
D|-0-0-0-00-00-0000-0-0-0-00-----------5-5-5-55-55-5555-5-5-5-55-55-5555--|

G|------------------------------------------12-------------------------------------|
D|-------------------------------------------------------------5--5-7-5--55-5-444--|
A|-2-2-2-2-2-2-4-5-0-0-0-0-0-0-4-5---10--10----10--10------4-5---------------------|
D|-------------------------------------------------------5-------------------------|

Bridge (1:56)

G|-----------------------------------------------------------------|
D|-----------------------------------------------------------------|
A|----------------2-22-2-00-0045-----------------2-22-22-200-0045--|
D|-2-22-2-22-2222----------------2-22-22-22-2222-------------------|

G|---------------------------------------------------------------------|
D|----------------------------------------------------------7777-7777--|
A|-----------------2-222-22-0-045-----------------2222-2222------------|
D|-2-222-22-2-2222----------------2-222-22-2-2222----------------------|

G|---------------------------------------------------------------------|
D|---------------------------------------------------------------5555--|
A|---------------------------------------------------------------------|
D|-5555-55-55-5555--7777-77-77-7777--4444-44-44-4444--5555-55-55-------|

G|----------------------------------------------------------------------------|
D|-----------------------------------------------------------------5555-5555--|
A|----------------------------------------------------------------------------|
D|-5555-55-55-5555--7777-77-77-7777--4444-4444-4444-4444-5555-5555------------|

Slow Chorus (2:45)

G|----------------------------------------------|
D|---------------------------------------77777--|
A|-2--------0-4-5---------2---------------------|
D|------5---------2------------5----7777--------|

End Chorus (2:57)

G|----------------------------------------------------------------------|
D|-----------------------------------------------------------5555-4444--|
A|-------------------------5555-4444------------------------------------|
D|-0-0-0-0-0-0-0-0-0-0-0-0-----------5-5-5-5-5-5-5-5-5-5-5-5------------|

G|------------------------------------------------------------------|
D|-2-2-2-2-2-2-2-2-4-4-4-4-4-4-4-4-5-5-5-5-5-5-5-5---------5-5-5-5--|
A|------------------------------------------------------------------|
D|-------------------------------------------------5-5-5-5----------|

G|--------------------------------------------------------------------||
D|-----------------------------------4--------------------------------||
A|-2-2-2-----------0-4-5-----------2---2-----------0-4-5--------------||
D|-------5-5-5-5-5-------2-2-2-2-2-------5-5-5-5-5-------2------------||


===============================================================================
            
Submit corrections

comments powered by Disqus
↑ Back to top | We Are The In Crowd Bass for Youve Got It Made. Lyrics for acoustic guitar and electric guitar. Tablatures and chords are parodies/interpretations of the original songs. You may use it for private study, scholarship, research or language learning purposes only