» » »

We Are The In Crowd, On Your Own Tabs (ver.1)

Artists:  A B C D E F G H I J K L M N O P Q R S T U V W X Y Z # 

On Your Own Tabs (ver.1)

We Are The In Crowd Tabs
 Rating:
4.4/5 (7 votes)
On Your Own lessons Tabs too difficult? Try these video lessons and learn fast
1
                -------------------------------------------------------------------------------
-------------------------------------------------------------------------------


Intro
e|----------------------------------------------------------------------------|
B|----------------------------------------------------------------------------|
G|-171717-141414-171717-14141414141414-171717-121212-171717-121212121212------|
D|-x-x-x--x-x-x--x-x-x--x-x-x-x-x-x-x--x-x-x--x-x-x--x-x-x--x-x-x-x-x-x-------|
A|-151515-121212-151515-12121212121212-151515-101010-151515-101010101010------|
E|----------------------------------------------------------------------------|

e|----------------------|-----------------------------------------------------|
B|----------------------|-----------------------------------------------------|
G|-14-15-14-12-10--(x2)-|-10-12-10-1414-1515-1414-1515--15-14-12--------------|
D|-x--x--x--x--x--------|-x--x--x--x-x--x-x--x-x--x-x --x--x--x---------------|
A|-12-13-12-10-8--------|-8--10-8--1212-1313-1212-1313--13-12-10--------------| 
E|----------------------|-----------------------------------------------------|

Verse 1
e|----------------------------------------------------------------------------|
B|----------------------------------------------------------------------------|
G|----------------5-5---------------------------------------------------------|
D|----------------5-5------------------77777777-33333333--------------7-7-7---|
A|-33333333333333-3-3-3333333333333333-55555555-11111111-333333333333-7-7-7---|
E|-11111111111111-----1111111111111111-------------------111111111111-5-5-5---|
   ..............     ................ ........ ........ ............  

e|--------------------------------------------------------------------------------|
B|--------------------------------------------------------------------------------|
G|----------------5-5-------------------------------------------------7~-5~-3~-3~-|
D|----------------5-5------------------77777777-33333333--------------7~-5~-3~-3~-|
A|-33333333333333-3-3-3333333333333333-55555555-11111111-333333333333-5~-3~-1~-1~-|
E|-11111111111111-----1111111111111111-------------------111111111111-------------|
   ..............     ................ ........ ........ ............  

Chorus
e|------------------------------------------------------------------------|
B|------------------------------------------------------------------------|
G|------------------5555555555555555-7777777777777777-3333333333333333----| 
D|-3333333333333333-5555555555555555-7777777777777777-3333333333333333----|
A|-3333333333333333-3333333333333333-5555555555555555-1111111111111111----|
E|-1111111111111111-------------------------------------------------------|

e|-------------------------------------------------------------------|
B|-------------------------------------------------------------------|
G|------------------5555555555555555-7777777777777777-33333-33355~---| 
D|-3333333333333333-5555555555555555-7777777777777777-33333-33355~---|
A|-3333333333333333-3333333333333333-5555555555555555-11111-11133~---|
E|-1111111111111111--------------------------------------------------|

e|-------------------------|
B|-------------------------|
G|-------------------------|
D|-33333333333333-7-7-7----|
A|-33333333333333-7-7-7----|
E|-11111111111111-5-5-5----|
   ..............

Verse 2
e|-----------------------------------------------------------------------|
B|-----------------------------------------------------------------------|
G|----------------5-5----------------------------------------------------|
D|----------------5-5------------------77777777-33333333-----------------|
A|-33333333333333-3-3-3333333333333333-55555555-11111111-333333333333----|
E|-11111111111111-----1111111111111111-------------------111111111111----|
   ..............     ................ ........ ........ ............  

e|---------------------------------------------------------|
B|---------------------------------------------------------|
G|-77--10-10-9-----55--10-10-12-----3333333333333333-------| x2
D|-77----------10--55-----------10--3333333333333333-------|
A|-55--------------33---------------1111111111111111-------|
E|---------------------------------------------------------|

Chorus
e|------------------------------------------------------------------------|
B|------------------------------------------------------------------------|
G|------------------5555555555555555-7777777777777777-3333333333333333----| 
D|-3333333333333333-5555555555555555-7777777777777777-3333333333333333----|
A|-3333333333333333-3333333333333333-5555555555555555-1111111111111111----|
E|-1111111111111111-------------------------------------------------------|

e|--------------------------------------------------------------------------|
B|--------------------------------------------------------------------------|
G|------------------5555555555555555-7777777777777777-33333-3333-55555555---| 
D|-3333333333333333-5555555555555555-7777777777777777-33333-3333-55555555---|
A|-3333333333333333-3333333333333333-5555555555555555-11111-1111-33333333---|
E|-1111111111111111---------------------------------------------------------|

Bridge
e|------------------------------------------------------------------------------------|
B|------------------------------------------------------------------------------------|
G|-77777777-55555555-33333333-55555555-77777777-55555555-33333333-5555555555555555555-|
D|-77777777-55555555-33333333-55555555-77777777-55555555-33333333-5555555555555555555-|
A|-55555555-33333333-11111111-33333333-55555555-33333333-11111111-3333333333333333333-|
E|------------------------------------------------------------------------------------|

e|----------------------------------------------|
B|----------------------------------------------|
G|---------5~------7~--------3333333333333------|
D|-3~------5~------7~--------3333333333333------|
A|-3~------3~------5~--------1111111111111------|
E|-1~-------------------------------------------|

Chorus
e|------------------------------------------------------------------------|
B|------------------------------------------------------------------------|
G|------------------5555555555555555-7777777777777777-3333333333333333----| 
D|-3333333333333333-5555555555555555-7777777777777777-3333333333333333----|
A|-3333333333333333-3333333333333333-5555555555555555-1111111111111111----|
E|-1111111111111111-------------------------------------------------------|

e|------------------------------------------------------------------------|
B|------------------------------------------------------------------------|
G|------------------5555555555555555-77777-77777-7777-33333-333333--------| 
D|-3333333333333333-5555555555555555-77777-77777-7777-33333-333333--------|
A|-3333333333333333-3333333333333333-55555-55555-5555-11111-111111--------|
E|-1111111111111111-------------------------------------------------------|

Outro
e|------------------------------------------|
B|------------------------------------------|
G|-77--10-10-9-----55--10-10-12-----3~------| 
D|-77----------10--55-----------10--3~------|
A|-55--------------33---------------1~------|
E|------------------------------------------|
            
Submit corrections

comments powered by Disqus
↑ Back to top | We Are The In Crowd Tabs for On Your Own. Lyrics for acoustic guitar and electric guitar. 1 Tablatures and chords are parodies/interpretations of the original songs. You may use it for private study, scholarship, research or language learning purposes only