» » »

Carry Me Home Bass tabs (ver.1)

Artists:  A B C D E F G H I J K L M N O P Q R S T U V W X Y Z # 

Carry Me Home Bass tabs (ver.1)

We Are The In Crowd
Rating:
3/5 (5 votes)

Hard to play? Try these video lessons and learn fast.
                -------------------------------------------------------------------------------
-------------------------------------------------------------------------------
Tuning: Drop D

INTRO
G|-------------------------------|
D|-------------------------------|
A|-------------------------------|
D|-1---6---1---66--66------------|

VERSE 1
G|----------------------------------|
D|----------------------------------|
A|----------------------------------|
D|--111-1-1-1-1666-6-6-6-6111-1-1-1-|

G|----------------------------------|
D|----------------------------------|
A|---22-2-00-0----------------------|
D|-------------11-11-11-66-66-66----|

G|----------------------------------|
D|----------------------------------|
A|---22222222-00000000--------------|
D|---------------------6------------|

CHORUS
G|----------------------------------|   G|-------|
D|----------------------------------|   D|-------|
A|----------------------------------|   A|-------|
D|--111-111-111-111-666-666-666-666-|x2 D|-11-11-|

VERSE 2
G|-------------------------------------------|
D|-------------------------------------------|
A|-------------------------------------------|
D|-11-1-1-1-66-6-6-6-11-1-1-1-10-10-10-6-6-6-|


G|----------------------------------|
D|----------------------------------|
A|----------------------------------|
D|----11-11-11-66-66-66-------------|

G|------------------------------------|
D|------------------------------------|
A|-22222222-44445555------------------|
D|-------------------6----------------|

CHORUS
G|----------------------------------|
D|----------------------------------|
A|----------------------------------|
D|-111-111-111-111-666-666-666-666--|x2

G|-------------------------------------|
D|-------------------------------------|
A|-22222222-44445555-------------------|
D|-------------------66666666-66666666-|

G|----------------------------------|
D|----------------------------------|
A|----------------------------------|
D|-111-111-111-111-666-666-666-666--|

BRIDGE

G|-----------------------------------|
D|-----------------------------------|
A|-----------------------------------|
D|-7-7-7-7-7-7-7-7-9-9-9-9-9-5-5-5-5-|

G|----------------------------------|
D|----------------------------------|
A|----------------------------------|
D|-2-2-2-2-3-3-3-3-6-6-6--6--10\1---| 



CHORUS
G|----------------------------------|
D|----------------------------------|
A|----------------------------------|
D|-111-111-111-111-666-666-666-666--|x2

G|-------------------------------------|
D|-------------------------------------|
A|-22222222-44445555-------------------|
D|-------------------66666666-66666666-|

G|----------------------------------|
D|----------------------------------|
A|----------------------------------|
D|-111-111-111-111-666-666-666-666--|x2

G|----------------------------------|
D|----------------------------------|
A|-2-2-2-2-2-2-4-5-0-0-0-0-0-0-0-0--|
D|----------------------------------|

G|----------------------------------------|
D|----------------------------------------|
A|----------------------------------------|
D|-5-5-5-5-5-5-5-5-7-7-7-7-7-7-7-7-1111-6-|


| /  slide up
| \  slide down
| h  hammer-on
| p  pull-off
| ~  vibrato
| +  harmonic
| x  Mute note
===============================================================================
            
Hard to play? Try these video lessons and learn fast. | Correct




comments powered by Disqus
↑ Back to top | Tablatures and chords are parodies/interpretations of the original songs. You may use it for private study, scholarship, research or language learning purposes only