» » »

We Are The In Crowd, Both Sides Of The Story Bass tabs (ver.1)

Artists:  A B C D E F G H I J K L M N O P Q R S T U V W X Y Z # 

Both Sides Of The Story Bass tabs (ver.1)

We Are The In Crowd Tabs
 Rating:
4.2/5 (5 votes)
Both Sides Of The Story lessons Tabs too difficult? Try these video lessons and learn fast
1
                Bass Player: Mike Ferri
Tuning: Drop D



| /  slide up
| \  slide down
| h  hammer-on
| p  pull-off
| ~  vibrato
| +  harmonic
| x  Mute note
| <> Bend note


Anytime that you see 1s written in groups, read them as 1s unless I have written 
that they are 11s.




Intro (0:05)

G|---------------------------------------------------------------------------|
D|---------------------------------------------------------------------------|
A|-------------------------------------------1-3-----------------1-1-1-------|
D|-1------------------------6--6--6-66--6--6-----1--1--1-1-1--1--------------|

G|---------------------------------------------------------------|
D|---------------------------------------------------------------|
A|-----------1111-1111-3333-3333---------------------------------|
D|-6666-6666---------------------3333-3333--6---------8----------|

Pre-Verse (0:30)

G|-----------------------------------------------------|
D|-----------------------------------------------------|
A|-----------------------------------------------------|
D|-1-1-1-1-----6--6---------1-1-1-1-----6--6-----------|

Verse (0:37)

G|-----------------------------------------------------|
D|-----------------------------------------------------|
A|-----------------------------------------------------|
D|-1-1-1-1-----6--6---------1-1-1-1-----6--6-----------|

G|---------------------------------------------|
D|---------------------------------------------|
A|-----------111-33333--4444-4444--------------|
D|-111-66666----------------------6666-666-----|

Chorus (0:50)

G|-------------------------------------------------------------------------------|
D|-------------------------------------------------------------------------------|
A|--------------------------------3333-4444--------------------------------------|
D|-1-1-1-1--6666-8888--1111-1111-------------1-1-1-1--6666-8888--3333-3111-666---|

Pre-Verse (1:04)

G|-----------------------------------------------------|
D|-----------------------------------------------------|
A|-----------------------------------------------------|
D|-1-1-1-1-----6--6---------1-1-1-1-----6--6-----------|

Verse (1:11)

G|----------------------------------------------|
D|----------------------------------------------|
A|----------------------------------------------|
D|-111-66666-6666-6666--111-66666-6666-6666-----|

G|---------------------------------------------|
D|---------------------------------------------|
A|-----------111-33333--4444-4444--------------|
D|-111-66666----------------------6666-666-----|

Chorus (1:25)

G------------------------------------------------------------------------------------|
D|-----------------------------------------------------------------------------------|
A|--------------------------------3333-4444------------------------------------------|
D|---1-1-1--6666-8888--1111-1111-------------1-1-1-1--6666-8888--3333-3111-6666-6666-|

Bridge (1:39)

G|----------------------------------------------------------------------------------|
D|----------------------------------------------------------------------------------|
A|-3333-3333-1111-1111---------------------3333-3333-1111-1111----------------------|
D|---------------------6666-6666-6666-6666---------------------6666-6666-6666-6666--|

Re-Intro (1:53)

G|----------------------------------------------------------------------|
D|----------------------------------------------------------------------|
A|-11-------------------------------------111-1111-3333-3333-333--------|
D|-----------------------------6666-6666-------------------------111----|

[That is an 11 and not two 1s]


G|-----------------------------------------------------------------------------|
D|-----------------------------------------------------------------------------|
A|-----------1111-1111-2222-2222-3333-3333-------------------------11----------|
D|-6666-6666--------------------------------6----------------------------------|

					                             [Again, an 11... not two 1s]

Chorus (2:21)

G|-----------------------------------------------------------------------------------|
D|-----------------------------------------------------------------------------------|
A|--------------------------------3333-4444------------------------------------------|
D|-1-1-1-1--6666-8888--1111-1111-------------1-1-1-1--6666-8888--3333-3111-6666-6666-|

G|-----------------------------------------------------------------------------------|
D|-----------------------------------------------------------------------------------|
A|--------------------------------3333-4444------------------------------------------|
D|-1-1-1-1--6666-8888--1111-1111-------------1-1-1-1--6666-8888--3333-3111-6666-6666-|

Ending (2:49)

G|----------------------------------------------------------||
D|----------------------------------------------------------||
A|-8888-8666--11-11-11-11--11-11-11-11----------------------||
D|----------------------------------------3333-3111-666-----||

[Those are 11s, not 1s]


===============================================================================
            
Submit corrections

comments powered by Disqus
↑ Back to top | We Are The In Crowd Bass for Both Sides Of The Story. Lyrics for acoustic guitar and electric guitar. 1 Tablatures and chords are parodies/interpretations of the original songs. You may use it for private study, scholarship, research or language learning purposes only