>
 >
Better Luck Next Time

Better Luck Next Time Bass Tabs

We Are The In Crowd - Better Luck Next Time chords, tabs, tablatures, lyrics

Guitar lessons | Add/correct | Request | Top 50 tabs Artists:  A B C D E F G H I J K L M N O P Q R S T U V W X Y Z 0-9

Better Luck Next Time Bass Tabs – We Are The In Crowd

CD, Sheet music, Poster

Do you like Better Luck Next Time? Share with your friends now
Bass Tabs
Bass Player: Mike Ferri
Tuning: C# G# C# F#



| /  slide up
| \  slide down
| h  hammer-on
| p  pull-off
| ~  vibrato
| +  harmonic
| x  Mute note
| <> Bend note


[Notes are grouped together so that they are easier to read/count, no other reason]


Intro (0:02)

F#|-----------------------------------------------------------------------------|
C#|-----------------------------------------------------------------------------|
G#|--------------------------------------3333-33-3---33-333--555---555---5555---|
C#|-2222-22-2---22-222--5-55-55--55-5757------------------------000---000-------|

Verse 1 (0:13) 

F#|-------------------------------------------------------------------|
C#|-------------------------------------------------------------------|
G#|-----------------------------------33-333-333-333-355-5----55-5----|
C#|-22-222-222-222-255-555-555-555-575--------------------00-0----00--|

F#|------------------------------------------------------------------|
C#|-------------------------5-5--------------------------------------|
G#|-----------------------------5-7--3-33-3--3-33-3------5555-5555---|
C#|-2-22-2--2-22-2--5-5-5-5--5-5--------------------0--0-------------|
        
Pre-Chorus (0:34)

F#|--------------|
C#|--------------|
G#|--------------|
C#|-2--5---0-----|

Chorus (0:36)

F#|---------------------------------------------------------------------|
C#|-----------------------------5----------------------------5----------|
G#|--------------3-33-33--3-5-7---7-5-------------------3--3---3--3-33--|
C#|-5555-0-00-00------------------------5-5-57-0-00-000-----------------|

F#|------------------------------------------------------------------|
C#|--------------------------------------5---------------------------|
G#|---------------------3333-3333-33-5-7---7-5--3333-3333------------|
C#|-2222-2222-0000-0000-----------------------------------0000-0000--|

Pre-Verse (0:55)

F#|------------------------------------|
C#|------2---------------5-------------|
G#|------------------------3--33333----|
C#|-2-22----2-22-2--5-55---------------|

Verse 2 (1:00)

F#|-------------------------------------------------------------------------|
C#|------------------------------------------------------5-5-----5-5-----5--|
G#|-----------------33-333-333-3-3535-----------------33-3-3--33-3-3--33-3--|
C#|-22-222-200-000-0------------------22-222-255-555-5----------------------|

F#|-----------------------------------------------------------------5555-5555--|
C#|----------------------------------------------------------------------------|
G#|---------------------33--33----------------------------3333-3333------------|
C#|-22---00--00----55-----------------2222-2222-0000-0000----------------------|
Chorus (1:21)

F#|---------------------------------------------------------------------|
C#|-----------------------------5----------------------------5----------|
G#|--------------3-33-33--3-5-7---7-5-------------------3--3---3--3-33--|
C#|-5555-0-00-00------------------------5-5-57-0-00-000-----------------|

F#|------------------------------------------------------------------|
C#|--------------------------------------5---------------------------|
G#|---------------------3333-3333-33-5-7---7-5--3333-3333------------|
C#|-2222-2222-0000-0000-----------------------------------0000-0000--|

Bridge (1:39)

F#|-------------------------------------------------------------|
C#|-------------------------------------5----5-----7-7-5--------|
G#|-------------------------------3--33---33----2---------------|
C#|-2-22-2-22-222--0-00-0-00-000--------------------------0000--|

F#|----------------------------------------------------------------|
C#|-------------------------------------5----5---------------------|
G#|-------------------------------3--33---33-----2--2--2-----------|
C#|-2-22-2-22-222--0-00-0-00-000---------------------------0-0000--|

F#|----------------------------------|
C#|-------------2222-4444-5555-7777--|
G#|----------------------------------|
C#|-2-22-2-22-2----------------------|

End Chorus (2:05)

F#|---------------------------------------------------------------------|
C#|-----------------------------5----------------------------5----------|
G#|--------------3-33-33--3-5-7---7-5-------------------3--3---3--3-33--|
C#|-5-----------------------------------5-5-57-0-00-000-----------------|

F#|----------------------------------------------------------------------------|
C#|--------------------------------------5-------------------------------------|
G#|---------------------3333-3333-33-5-7---7-5---------------------------------|
C#|-2222-2222-0000-0000-------------------------2222-2222-4444-4444-5555-5555--|

Ending (2:27)

F#|------------------------------------------------------------------------------||
C#|--------------------------------5-55---------------------------5--------------||
G#|-----------------------------3-3-3-----------------------------3--------------||
C#|--2-22222--5-55555--0-00000-----------2-22222--5-55555--0-0000----------------||



===============================================================================





Comments


Popular We Are The In Crowd tabs & chords
All Or Nothing Bass Tabs
Attention Bass Tabs
Lights Out Bass Tabs
On Your Own Bass Tabs
On Your Own Chords
See You Around Chords
Rumor Mill 3 Tabs
Carry Me Home Ukulele
Kiss Me Again Ukulele
Rumor Mill Ukulele


Song lyrics



↑ Back to top | Tablatures and chords are parodies/interpretations of the original songs. You may use it for private study, scholarship, research or language learning purposes only
© 2014 AZChords.com Contact us | Privacy policy | DMCA | Add/correct tabs | Request tabs | Top 50 tabs