>
 >
Paradigm

Paradigm Guitar Tabs

We Are The Fallen - Paradigm chords, tabs, tablatures, lyrics

Guitar lessons | Add/correct | Request | Top 50 tabs Artists:  A B C D E F G H I J K L M N O P Q R S T U V W X Y Z 0-9

Paradigm Guitar Tabs – We Are The Fallen

CD, Sheet music, Poster

Do you like Paradigm? Share with your friends now
ChordsTabsUkulele
Hello this is my first tab so if you find any inaccuracies please let me know kindly thanks

Determined by ear - no outside help or materials use. this is solely what I think is the 
correct way to play this song

We Are the Fallen

This song is in drop D but tuned down a whole step (Drop C)

           Intro
         Guitar 1

D|--10----------------10---------------10---------------10--------------|
A|------10-----10---------10-----10--------10-----10--------10------10--|
F|----------11----------------11---------------11---------------11------|
C|----------------------------------------------------------------------|
G|----------------------------------------------------------------------|
C|----------------------------------------------------------------------|


D|---9-----------------9----------------9----------------9--------------|
A|------10-----10---------10-----10--------10-----10--------10------10--|
F|----------11----------------11---------------11---------------11------|
C|----------------------------------------------------------------------|
G|----------------------------------------------------------------------|
C|----------------------------------------------------------------------|


D|--10----------------10---------------10---------------12--------------|
A|------10-----10---------10-----10--------10-----10--------10------10--|
F|----------11----------------11---------------11---------------11------|
C|----------------------------------------------------------------------|
G|----------------------------------------------------------------------|
C|----------------------------------------------------------------------|


D|---9-----------------9----------------9----------------12-------------|
A|------10-----10---------10-----10--------10-----10--------10------10--|
F|----------11----------------11---------------11---------------11------|
C|----------------------------------------------------------------------| X2
G|----------------------------------------------------------------------|
C|----------------------------------------------------------------------|

    Guitar 2 (Comes in on second time of guitar 1 intro)

D|------------------------------------------------------------------------|
A|------------------------------------------------------------------------|
F|------------------------------------------------------------------------|
C|-0-0---0-0---0-0---0-0---0-0-2-2-4-4---4-4---4-4---4-4---4-4-4-2-2-2----| X2
G|-0-0---0-0---0-0---0-0---0-0-2-2-4-4---4-4---4-4---4-4---4-4-4-2-2-2----|
C|-0-0---0-0---0-0---0-0---0-0-2-2-4-4---4-4---4-4---4-4---4-4-4-2-2-2----|

   Verse (I only hear one guitar playing)

D|---------------------------------------------------------------------|
A|---------------------------------------------------------------------|
F|-7-7-7-7-7-7-7-7-7-7-7-7-7-7-6-6----------------------9-9-9-9-9-9----|
C|-7-7-7-7-7-7-7-7-7-7-7-7-7-7-6-6--4-4-4-4-4-4-4-4-4-4-9-9-9-9-9-9----|
G|-5-5-5-5-5-5-5-5-5-5-5-5-5-5-4-4--4-4-4-4-4-4-4-4-4-4-7-7-7-7-7-7----|
C|----------------------------------4-4-4-4-4-4-4-4-4-4----------------|
   * * * * * * * * * * * * * * * *  * * * * * * * * * * * * * * * *


D|---------------------------------------------------------------------|
A|---------------------------------------------------------------------|
F|-7-7-7-7-7-7-7-7-7-7-7-7-7-7-6-6-------------------------------------|
C|-7-7-7-7-7-7-7-7-7-7-7-7-7-7-6-6--4-4-4-4-4-4-4-4-4-4-4-4-4-4-4-4----|
G|-5-5-5-5-5-5-5-5-5-5-5-5-5-5-4-4--4-4-4-4-4-4-4-4-4-4-4-4-4-4-4-4----|
C|----------------------------------4-4-4-4-4-4-4-4-4-4-4-4-4-4-4-4----|
   * * * * * * * * * * * * * * * *  * * * * * * * * * * * * * * * *


D|---------------------------------------------------------------------|
A|---------------------------------------------------------------------|
F|-7-7-7-7-7-7-7-7-7-7-7-7-7-7-6-6----------------------9-9-9-9-9-9----|
C|-7-7-7-7-7-7-7-7-7-7-7-7-7-7-6-6--4-4-4-4-4-4-4-4-4-4-9-9-9-9-9-9----|
G|-5-5-5-5-5-5-5-5-5-5-5-5-5-5-4-4--4-4-4-4-4-4-4-4-4-4-7-7-7-7-7-7----|
C|----------------------------------4-4-4-4-4-4-4-4-4-4----------------|
   * * * * * * * * * * * * * * * *  * * * * * * * * * * * * * * * *


D|---------------------------------------------------------------------|
A|---------------------------------------------------------------------|
F|-7-7-7-7-7-7-7-7-7-7-7-7-7-7-6-6--------------------9-9-9-9-9-9-9----|
C|-7-7-7-7-7-7-7-7-7-7-7-7-7-7-6-6--4-4-4-4-4-4-4-4-4-9-9-9-9-9-9-9----|
G|-5-5-5-5-5-5-5-5-5-5-5-5-5-5-4-4--4-4-4-4-4-4-4-4-4-7-7-7-7-7-7-7----|
C|----------------------------------4-4-4-4-4-4-4-4-4------------------|
   * * * * * * * * * * * * * * * *  * * * * * * * * * * * * * * * *

       Chorus - Guitar 1

D|--10----------------10---------------10---------------10--------------|
A|------10-----10---------10-----10--------10-----10--------10------10--|
F|----------11----------------11---------------11---------------11------|
C|----------------------------------------------------------------------|
G|----------------------------------------------------------------------|
C|----------------------------------------------------------------------|


D|---9-----------------9----------------9----------------9--------------|
A|------10-----10---------10-----10--------10-----10--------10------10--|
F|----------11----------------11---------------11---------------11------|
C|----------------------------------------------------------------------|
G|----------------------------------------------------------------------|
C|----------------------------------------------------------------------|


D|--10----------------10---------------10---------------12--------------|
A|------10-----10---------10-----10--------10-----10--------10------10--|
F|----------11----------------11---------------11---------------11------|
C|----------------------------------------------------------------------|
G|----------------------------------------------------------------------|
C|----------------------------------------------------------------------|


D|---9-----------------9----------------9----------------12-------------|
A|------10-----10---------10-----10--------10-----10--------10------10--|
F|----------11----------------11---------------11---------------11------|
C|----------------------------------------------------------------------| X2
G|----------------------------------------------------------------------|
C|----------------------------------------------------------------------|

       Chorus - Guitar 2

D|----------------------------------------------------------------------|
A|----------------------------------------------------------------------|
F|----------------------------------------------------------------------|
C|-0-0-0-0-0-0-0-0-0-0-0-0-0-0-2-2--4-4-4-4-4-4-4-4-4-4-4-4-4-4-2-2-2---| X4
G|-0-0-0-0-0-0-0-0-0-0-0-0-0-0-2-2--4-4-4-4-4-4-4-4-4-4-4-4-4-4-2-2-2---|
C|-0-0-0-0-0-0-0-0-0-0-0-0-0-0-2-2--4-4-4-4-4-4-4-4-4-4-4-4-4-4-2-2-2---|



      Verse 2

D|---------------------------------------------------------------------|
A|---------------------------------------------------------------------|
F|-7-7-7-7-7-7-7-7-7-7-7-7-7-7-6-6----------------------9-9-9-9-9-9----|
C|-7-7-7-7-7-7-7-7-7-7-7-7-7-7-6-6--4-4-4-4-4-4-4-4-4-4-9-9-9-9-9-9----|
G|-5-5-5-5-5-5-5-5-5-5-5-5-5-5-4-4--4-4-4-4-4-4-4-4-4-4-7-7-7-7-7-7----|
C|----------------------------------4-4-4-4-4-4-4-4-4-4----------------|
   * * * * * * * * * * * * * * * *  * * * * * * * * * * * * * * * *


D|---------------------------------------------------------------------|
A|---------------------------------------------------------------------|
F|-7-7-7-7-7-7-7-7-7-7-7-7-7-7-6-6-------------------------------------|
C|-7-7-7-7-7-7-7-7-7-7-7-7-7-7-6-6--4-4-4-4-4-4-4-4-4-4-4-4-4-4-4-4----|
G|-5-5-5-5-5-5-5-5-5-5-5-5-5-5-4-4--4-4-4-4-4-4-4-4-4-4-4-4-4-4-4-4----|
C|----------------------------------4-4-4-4-4-4-4-4-4-4-4-4-4-4-4-4----|
   * * * * * * * * * * * * * * * *  * * * * * * * * * * * * * * * *


D|---------------------------------------------------------------------|
A|---------------------------------------------------------------------|
F|-7-7-7-7-7-7-7-7-7-7-7-7-7-7-6-6----------------------9-9-9-9-9-9----|
C|-7-7-7-7-7-7-7-7-7-7-7-7-7-7-6-6--4-4-4-4-4-4-4-4-4-4-9-9-9-9-9-9----|
G|-5-5-5-5-5-5-5-5-5-5-5-5-5-5-4-4--4-4-4-4-4-4-4-4-4-4-7-7-7-7-7-7----|
C|----------------------------------4-4-4-4-4-4-4-4-4-4----------------|
   * * * * * * * * * * * * * * * *  * * * * * * * * * * * * * * * *


        (Fourth time like this)
D|--------------------------------------------------------------------------|
A|--------------------------------------------------------------------------|
F|-7-7-7-7-7-7-7-7-7-7-7-7-7-7-6-6---------------------9-9-9--9-9-9---------|
C|-7-7-7-7-7-7-7-7-7-7-7-7-7-7-6-6--4-4-4-4-4-4-4-4-4--9-9-9--9-9-9---------|
G|-5-5-5-5-5-5-5-5-5-5-5-5-5-5-4-4--4-4-4-4-4-4-4-4-4--7-7-7--7-7-7---------|
C|----------------------------------4-4-4-4-4-4-4-4-4-----------------------|
   * * * * * * * * * * * * * * * *  * * * * * * * * *


   Chorus - Guitar 1

D|--10----------------10---------------10---------------10--------------|
A|------10-----10---------10-----10--------10-----10--------10------10--|
F|----------11----------------11---------------11---------------11------|
C|----------------------------------------------------------------------|
G|----------------------------------------------------------------------|
C|----------------------------------------------------------------------|


D|---9-----------------9----------------9----------------9--------------|
A|------10-----10---------10-----10--------10-----10--------10------10--|
F|----------11----------------11---------------11---------------11------|
C|----------------------------------------------------------------------|
G|----------------------------------------------------------------------|
C|----------------------------------------------------------------------|


D|--10----------------10---------------10---------------12--------------|
A|------10-----10---------10-----10--------10-----10--------10------10--|
F|----------11----------------11---------------11---------------11------|
C|----------------------------------------------------------------------|
G|----------------------------------------------------------------------|
C|----------------------------------------------------------------------|


D|---9-----------------9----------------9----------------12-------------|
A|------10-----10---------10-----10--------10-----10--------10------10--|
F|----------11----------------11---------------11---------------11------|
C|----------------------------------------------------------------------| X2
G|----------------------------------------------------------------------|
C|----------------------------------------------------------------------|

       Chorus - Guitar 2

D|----------------------------------------------------------------------|
A|----------------------------------------------------------------------|
F|----------------------------------------------------------------------|
C|-0-0-0-0-0-0-0-0-0-0-0-0-0-0-2-2--4-4-4-4-4-4-4-4-4-4-4-4-4-4-2-2-2---| X4
G|-0-0-0-0-0-0-0-0-0-0-0-0-0-0-2-2--4-4-4-4-4-4-4-4-4-4-4-4-4-4-2-2-2---|
C|-0-0-0-0-0-0-0-0-0-0-0-0-0-0-2-2--4-4-4-4-4-4-4-4-4-4-4-4-4-4-2-2-2---|


        Bridge - Guitar 1 (Listen for the timing)

D|----------------------------------------------------------------------|
A|----------------------------------------------------------------------|
F|----------------------------------------------------------------------|
C|-7-6-7-6-4-6-4--------------------------------------------------------|X9
G|---------------7-5-4-5-4-5-4-4-4--------------------------------------|
C|----------------------------------------------------------------------|


        Bridge - Guitar 2

D|----------------------------------------------------------------------|
A|----------------------------------------------------------------------|
F|------------4-4--4--4--6-6--9--9-9-9-6-6-6----------------------------|
C|-4-4--4--4--4-4--4--4--6-6--9--9-9-9-6-6-6----------------------------|
G|-4-4--4--4--2-2--2--2--4-4--7--7-7-7-4-4-4----------------------------|
C|-4-4--4--4------------------------------------------------------------|



D|----------------------------------------------------------------------|
A|----------------------------------------------------------------------|
F|------------------4-4--4-4-4--4-4--6-6--9-9-9--9-9-9-6-6-6------------|
C|-4-4--4-4-4--4-4--4-4--4-4-4--4-4--6-6--9-9-9--9-9-9-6-6-6------------|X2
G|-4-4--4-4-4--4-4--2-2--2-2-2--2-2--4-4--7-7-7--7-7-7-4-4-4------------|
C|-4-4--4-4-4--4-4------------------------------------------------------|


D|----------------------------------------------------------------------|
A|----------------------------------------------------------------------|
F|----------------------------------------------------------------------|
C|-4---6---7---9---11\--------------------------------------------------|
G|-4---6---7---9---11\--------------------------------------------------|
C|-4---6---7---9---11\--------------------------------------------------|

    Interlude

D|--10----------------10---------------10---------------10--------------|
A|------10-----10---------10-----10--------10-----10--------10------10--|
F|----------11----------------11---------------11---------------11------|
C|----------------------------------------------------------------------|
G|----------------------------------------------------------------------|
C|----------------------------------------------------------------------|


D|---9-----------------9----------------9----------------9--------------|
A|------10-----10---------10-----10--------10-----10--------10------10--|
F|----------11----------------11---------------11---------------11------|
C|----------------------------------------------------------------------|
G|----------------------------------------------------------------------|
C|----------------------------------------------------------------------|


D|--10----------------10---------------10---------------12--------------|
A|------10-----10---------10-----10--------10-----10--------10------10--|
F|----------11----------------11---------------11---------------11------|
C|----------------------------------------------------------------------|
G|----------------------------------------------------------------------|
C|----------------------------------------------------------------------|


D|---9-----------------9----------------9----------------12-------------|
A|------10-----10---------10-----10--------10-----10--------10------10--|
F|----------11----------------11---------------11---------------11------|
C|----------------------------------------------------------------------|
G|----------------------------------------------------------------------|
C|----------------------------------------------------------------------|


       Chorus - Guitar 1

D|--10----------------10---------------10---------------10--------------|
A|------10-----10---------10-----10--------10-----10--------10------10--|
F|----------11----------------11---------------11---------------11------|
C|----------------------------------------------------------------------|
G|----------------------------------------------------------------------|
C|----------------------------------------------------------------------|


D|---9-----------------9----------------9----------------9--------------|
A|------10-----10---------10-----10--------10-----10--------10------10--|
F|----------11----------------11---------------11---------------11------|
C|----------------------------------------------------------------------|
G|----------------------------------------------------------------------|
C|----------------------------------------------------------------------|


D|--10----------------10---------------10---------------12--------------|
A|------10-----10---------10-----10--------10-----10--------10------10--|
F|----------11----------------11---------------11---------------11------|
C|----------------------------------------------------------------------|
G|----------------------------------------------------------------------|
C|----------------------------------------------------------------------|


D|---9-----------------9----------------9----------------12-------------|
A|------10-----10---------10-----10--------10-----10--------10------10--|
F|----------11----------------11---------------11---------------11------|
C|----------------------------------------------------------------------| X2
G|----------------------------------------------------------------------|
C|----------------------------------------------------------------------|


       Chorus - Guitar 2

D|----------------------------------------------------------------------|
A|----------------------------------------------------------------------|
F|----------------------------------------------------------------------|
C|-0-0-0-0-0-0-0-0-0-0-0-0-0-0-2-2--4-4-4-4-4-4-4-4-4-4-4-4-4-4-2-2-2---| X4
G|-0-0-0-0-0-0-0-0-0-0-0-0-0-0-2-2--4-4-4-4-4-4-4-4-4-4-4-4-4-4-2-2-2---|
C|-0-0-0-0-0-0-0-0-0-0-0-0-0-0-2-2--4-4-4-4-4-4-4-4-4-4-4-4-4-4-2-2-2---|



        Ending - Guitar 1

D|--10----------------10---------------10---------------10--------------|
A|------10-----10---------10-----10--------10-----10--------10------10--|
F|----------11----------------11---------------11---------------11------|
C|----------------------------------------------------------------------|
G|----------------------------------------------------------------------|
C|----------------------------------------------------------------------|


D|---9-----------------9----------------9----------------9--------------|
A|------10-----10---------10-----10--------10-----10--------10------10--|
F|----------11----------------11---------------11---------------11------|
C|----------------------------------------------------------------------|
G|----------------------------------------------------------------------|
C|----------------------------------------------------------------------|


D|--10----------------10---------------10---------------12--------------|
A|------10-----10---------10-----10--------10-----10--------10------10--|
F|----------11----------------11---------------11---------------11------|
C|----------------------------------------------------------------------|
G|----------------------------------------------------------------------|
C|----------------------------------------------------------------------|


D|---9-----------------9----------------9----------------12-------------|
A|------10-----10---------10-----10--------10-----10--------10------10--|
F|----------11----------------11---------------11---------------11------|
C|----------------------------------------------------------------------| X2
G|----------------------------------------------------------------------|
C|----------------------------------------------------------------------|


    Ending - Guitar 2

D|------------------------------------------------------------------------|
A|------------------------------------------------------------------------|
F|------------------------------------------------------------------------|
C|-0-0---0-0---0-0---0-0---0-0-2-2-4-4---4-4---4-4---4-4---4-4-4-2-2-2----| X4
G|-0-0---0-0---0-0---0-0---0-0-2-2-4-4---4-4---4-4---4-4---4-4-4-2-2-2----|
C|-0-0---0-0---0-0---0-0---0-0-2-2-4-4---4-4---4-4---4-4---4-4-4-2-2-2----|



    Outro

         Guitar 1
D|----------------------------------------------------------------------|
A|----------------------------------------------------------------------|
F|----------------------------------------------------------------------|
C|-7-6-7-6-4-6-4--------------------------------------------------------|
G|---------------7-5-4-5-4-5-4-4-4--------------------------------------|
C|----------------------------------------------------------------------|



     Guitar 2


D|----------------------------------------------------------------------|
A|----------------------------------------------------------------------|
F|---------9-9-6-6-6----------------------------------------------------|
C|-4-4--4--9-9-6-6-6--4-4-----------------------------------------------|
G|-4-4--4--7-7-4-4-4--4-4-----------------------------------------------|
C|-4-4--4-------------4-4-----------------------------------------------|


  Thanks for using this tab please rate !





Comments


Popular We Are The Fallen tabs & chords
I Am Only One Chords
I Will Stay Chords
Through Hell Chords
Bury Me Alive Tabs
St John Tabs
Bury Me Alive Ukulele
I Am Only One Ukulele
I Am Only One Intro Ukulele
I Will Stay Ukulele
Paradigm Ukulele


Song lyrics



↑ Back to top | Tablatures and chords are parodies/interpretations of the original songs. You may use it for private study, scholarship, research or language learning purposes only
© 2014 AZChords.com Contact us | Privacy policy | DMCA | Add/correct tabs | Request tabs | Top 50 tabs