>
 >
Tonight

Tonight Guitar Tabs

We Are Scientists - Tonight chords, tabs, tablatures, lyrics

Guitar lessons | Add/correct | Request | Top 50 tabs Artists:  A B C D E F G H I J K L M N O P Q R S T U V W X Y Z 0-9

Tonight Guitar Tabs – We Are Scientists

CD, Sheet music, Poster

Do you like Tonight? Share with your friends now
Bass TabsTabs
-------------------------------------------------------------------------------
-------------------------------------------------------------------------------
Tuning: Standard

Hey this is my first ever tab. There may be a few mistakes or ommisions but i think that 
majority of this is correct. Feel free to leave a comment if there are any mistakes

Intro / Verse: Play this from 0.05 to 0.42

e|--------10-9-----|
B|-----10----------|
G|--11---------11--| X11
D|-----------------|
A|-----------------|
E|-----------------|

I want you to stay and I guess I can give you a line
It's always the same but it works better every time
Just don't walk away from me
Just don't walk away from me

Chorus: Play this with very quick up and down strokes from 0.42 to 0.53

e|--12-12-12-12-12-12-12-12-12-12-12-12-12-12-12-12-12-12-12-12-12-12-12-12----|
B|-----------------------------------------------------------------------------|
G|-----------------------------------------------------------------------------|
D|-----------------------------------------------------------------------------|
A|-----------------------------------------------------------------------------|
E|-----------------------------------------------------------------------------|

Tonight, oh tonight
I promise to
Remember that making promises
Is always a mistake

Back to the Intro / Verse riff between 0.53 and 1.28

e|--------10-9-----|
B|-----10----------|
G|--11---------11--| X11
D|-----------------|
A|-----------------|
E|-----------------|

I end every day trying to think my way out of my line
All I can say is it takes less words every time
Just don't walk away from me
Just don't walk away from me

Back to Chorus riff between 1.29 and 1.50

e|--12-12-12-12-12-12-12-12-12-12-12-12-12-12-12-12-12-12-12-12-12-12-12-12----|
B|-----------------------------------------------------------------------------|
G|-----------------------------------------------------------------------------|
D|-----------------------------------------------------------------------------|
A|-----------------------------------------------------------------------------|
E|-----------------------------------------------------------------------------|

Tonight, oh tonight
I promise to
Remember that making promises
Is always a mistake
Oh tonight I promise to
Remember that making promises
Is always a mistake

Play nothing between 1.50 and 2.32

So let's down another dose; understanding is the last thing I want
So let's down another dose; understanding is the last thing I want
So let's down another dose; understanding is the last thing I want
So let's down another dose; understanding is the last thing I want

At 2.32 play this riff until 3.01

e|------------------------------------------------|
B|--10-------10-------10----9------9-------9------|
G|-----11-------11-------11---9------10------10---| X4
D|--------12-------11-----------11------11--------|
A|------------------------------------------------|
E|------------------------------------------------|

So let's down another dose; understanding is the last thing I want
So let's down another dose; understanding is the last thing I want

At 3.01 play this until 3.11

e|--14-14-14-14-14-------------------------13-13-13---|
B|-----------------15-15-15-14-14-14-14-14------------|
G|----------------------------------------------------| X3
D|----------------------------------------------------|
A|----------------------------------------------------|
E|----------------------------------------------------|

At 3.11 play a slightly different version, bending the 4th and 5th 14 on the B string

e|--14-14-14-14-14---------------------------------|
B|-----------------15-15-15-14-14-14-14-14-14-14---|
G|-------------------------------------------------|
D|-------------------------------------------------|
A|-------------------------------------------------|
E|-------------------------------------------------|

At 3.15 play this until 3.25

e|--19-19-19-19-19-------------------------17-17-17---|
B|-----------------19-19-19-17-17-17-17-17------------|
G|----------------------------------------------------| X3
D|----------------------------------------------------|
A|----------------------------------------------------|
E|----------------------------------------------------|

Tonight, oh tonight
I promise to

At 3.25 play this to finish the song

e|--19-19-19----------------21-21-21-21-21-21-21------|
B|-----------19-19-19-17-17----------------------16~~~|
G|----------------------------------------------------|
D|----------------------------------------------------|
A|----------------------------------------------------|
E|----------------------------------------------------|

Remember that making promises
Is always a mistake

| /  slide up
| \  slide down
| h  hammer-on
| p  pull-off
| ~  vibrato
| +  harmonic
| x  Mute note
===============================================================================





Comments


Popular We Are Scientists tabs & chords
Great Escape Bass Tabs
Nobody Move Nobody Get Hurt 2 Bass Tabs
Ram It Home Bass Tabs
Spotomatic Freeze Bass Tabs
Worth The Wait Bass Tabs
It's A Hit Chords
Nobody Move Nobody Gets Hurt Chords
Hoppipola Performed On Live Lounge Tabs
Lets See It Intro Tabs
Nobody Move Nobody Gets Hurt Ukulele


Song lyrics



↑ Back to top | Tablatures and chords are parodies/interpretations of the original songs. You may use it for private study, scholarship, research or language learning purposes only
© 2014 AZChords.com Contact us | Privacy policy | DMCA | Add/correct tabs | Request tabs | Top 50 tabs