» » »

We Are Scientists, Selective Memory Tabs (ver.1)

Artists:  A B C D E F G H I J K L M N O P Q R S T U V W X Y Z # 

Selective Memory Tabs (ver.1)

We Are Scientists Tabs
 Rating:
4/5 (4 votes)
Selective Memory lessons Tabs too difficult? Try these video lessons and learn fast
                Selective Memory tab 



This is one damn catchy song, I’d recommend any We Are Scientists albums =D



Standard Tuning

intro
e|----------------------------------------------------|
B|--5--x-5-5--x-5-5--x-5-5-5-5-55---------------------|
G|--5--x-5-5--x-5-5--x-5-5-5-5-55---------------------|
D|--5--x-5-5--x-5-5--x-5-5-5-5-55---------------------|
A|--3--x-3-3--x-3-3--x-3-3-3-3-33---------------------|
E|----------------------------------------------------|
x2

1st verse
e|-------------------------------------------------------------|
B|--5--x-5-5--x-5-5--x-5-5-5-5-555--x-5-5--x-5-5--x-5-5-5-5-55-|
G|--5--x-5-5--x-5-5--x-5-5-5-5-555--x-5-5--x-5-5--x-5-5-5-5-55-|
D|--5--x-5-5--x-5-5--x-5-5-5-5-557--x-7-7--x-7-7--x-7-7-7-7-77-|
A|--3--x-3-3--x-3-3--x-3-3-3-3-337--x-7-7--x-7-7--x-7-7-7-7-77-|
E|-------------------------------------------------------------|
x2

Chorus
e|-----------------------------------------------------|
B|-----------------------------------------------------|
G|-------------------------7-7-7-7---------------------|
D|-3-3-3-3-5-5-5-5-7-7-7-7-7-7-7-7-3-3-3-3-5-----------|
A|-3-3-3-3-5-5-5-5-7-7-7-7-5-5-5-5-3-3-3-3-5-----------|
E|-1-1-1-1-3-3-3-3-5-5-5-5---------1-1-1-1-3-----------|

intro x2

2nd verse (With distortion)
e|-------------------------------------------------------------------|
B|-------------------------------------------------------------------|
G|-9-9-9-9-9-9-9-9-7-7-7-7-7-7-7-7-5-5-5-5-5-5-5-5-5-5-5-5-5-5-5-5-5-|
D|-------------------------------------------------------------------|
A|-7-7-7-7-7-7-7-7-5-5-5-5-5-5-5-5-3-3-3-3-3-3-3-3-3-3-3-3-3-3-3-3-3-|
E|-------------------------------------------------------------------|

Chorus

Pre-Bridge
e|------------------------------------------------------------------|
B|--5--x-5-5--x-5-5--x-5-6-6-6-555--x-5-5--x-5-6-6-6-6-6-6-6-6------|
G|--5--x-5-5--x-5-5--x-5-5-5-5-555--x-5-5--x-5-5-5-5-5-5-5-5-5------|
D|--5--x-5-5--x-5-5--x-5-5-5-5-555--x-5-5--x-5-5-5-5-5-5-5-5-5------|
A|--3--x-3-3--x-3-3--x-3-3-3-3-333--x-3-3--x-3-3-3-3-3-3-3-3-3------|
E|------------------------------------------------------------------|

Bridge
e|--------------------------------------------------------------------|
B|--------------------------------------------------------------------|
G|-------------------------------------3-----3---3-----3-----3---3----|
D|-5-5-5-5-5-5-5-5-5-5-5-5-5-5-5-5------------------------------------|
A|-5-5-5-5-5-5-5-5-5-5-5-5-5-5-5-5-3-3---3-3---3---3-3---3-3---3------|
E|-3-3-3-3-3-3-3-3-3-3-3-3-3-3-3-3------------------------------------| x2



e|--------------------------------------------------------------------|
B|--------------------------------------------------------------------|
G|--------------------------------------------------------------------|
D|-7-7-7-7-7-7-7-7-6-6-6-6-6-6-6-6-5-5-5-5-5-5-5-5-4-4-4-4-4-4-4-4----|
A|-7-7-7-7-7-7-7-7-6-6-6-6-6-6-6-6-5-5-5-5-5-5-5-5-4-4-4-4-4-4-4-4----|
E|-5-5-5-5-5-5-5-5-4-4-4-4-4-4-4-4-3-3-3-3-3-3-3-3-2-2-2-2-2-2-2-2----|



e|-------------------|
B|-------------------|
G|-------------------|
D|-3-3-3-3-3-3-3-3-5-|
A|-3-3-3-3-3-3-3-3-5-|
E|-1-1-1-1-1-1-1-1-3-|

Intro 
e|-----------------------------------------------------------|
B|--5--x-5-5--x-5-5--x-5-5-5-5-55--x-5-5--x-5-5--x-5---------|
G|--5--x-5-5--x-5-5--x-5-5-5-5-55--x-5-5--x-5-5--x-5-9-9-7-7-|
D|--5--x-5-5--x-5-5--x-5-5-5-5-55--x-5-5--x-5-5--x-5---------|
A|--3--x-3-3--x-3-3--x-3-3-3-3-33--x-3-3--x-3-3--x-3-7-7-5-5-|
E|-----------------------------------------------------------|

Solo
e|-----------------------------------------------------------------|
B|-----------------------------------------------------------------|
G|-5-5-5-5-5-5-5-5-7-7-7-7-7-7-7-7-4-4-4-4-5-5-5-5-7-7-7-7-9-9-9-9-|
D|-----------------------------------------------------------------|
A|-3-3-3-3-3-3-3-3-5-5-5-5-5-5-5-5-2-2-2-2-3-3-3-3-5-5-5-5-7-7-7-7-|
E|-----------------------------------------------------------------|


e|----------------------------------------------------------------|
B|---------------------------------------12121212-13-13-13-13-----|
G|----------------------------------------------------------------|
D|----------------------------------------9-9-9-9-10-10-10-10-----|
A|-7-7-7-7-7-7-7-7-10-10-10-10-10-10-10-10-10---------------------|
E|----------------------------------------------------------------|


e|--------------------------|
B|-15-15-15-15-17-17-17-17--|
G|--------------------------|
D|-12-12-12-12-14-14-14-14--|
A|--------------------------|
E|--------------------------|


Chorus Variation
e|------------------------------------------------------------|
B|------------------------------------------------------------|
G|-------------------------7-7-7-7----------------------------|
D|-3-3-3-3-5-5-5-5-7-7-7-7-7-7-7-7-3-3-3-3-5-5-5-5-5-5-5-5----|
A|-3-3-3-3-5-5-5-5-7-7-7-7-5-5-5-5-3-3-3-3-5-5-5-5-5-5-5-5----|
E|-1-1-1-1-3-3-3-3-5-5-5-5---------1-1-1-1-3-3-3-3-3-3-3-3----|


e|--------------------------------------|
B|--------------------------------------|
G|-7-7-7-7-7-7-7-7-7-7-7-7-7-7-7-7------|
D|-7-7-7-7-7-7-7-7-7-7-7-7-7-7-7-7------|
A|-5-5-5-5-5-5-5-5-5-5-5-5-5-5-5-5------|
E|--------------------------------------|

Chorus

Intro x4

End on
e|---|
B|---|
G|-5-|
D|-5-|
A|-3-|
E|---|


Please rate! =)
            
Submit corrections

comments powered by Disqus
↑ Back to top | We Are Scientists Tabs for Selective Memory. Lyrics for acoustic guitar and electric guitar. Tablatures and chords are parodies/interpretations of the original songs. You may use it for private study, scholarship, research or language learning purposes only