» » »

Scene Is Dead Bass tabs (ver.1)

Artists:  A B C D E F G H I J K L M N O P Q R S T U V W X Y Z # 

Scene Is Dead Bass tabs (ver.1)

We Are Scientists
Rating:
0/5 (0 votes)

Hard to play? Try these video lessons and learn fast.
                The Scene Is Dead
RATE PLEASE

Intro 0:12
G|----------------------------------|
D|----------------------------------|
A|----------------------------------|
E|55555555/99999999/1313131313131313

Verse1 0:37
G|------------------|
D|------------------|
A|------------------|
E|55---99---22---22-|

G|--------------------|
D|--------------------|
A|--------------------|
E|55---99---22---2352-|

G|------------------------|
D|------------------------|
A|------------------------|
E|55---99---22---22-2/12\-|

G|-----------------------|
D|-----------------------|
A|-----------------------|
E|55---99---22---2-4-5-7-|

Pre-Chorus 1:02
G|------------------------------|
D|------------------------------|
A|------------------------------|
E|999999999999999555555555555555

Chorus 1:08
G|----------------|
D|----------------| x2
A|----------------|
E|55555555-9999999

G|------------------------|
D|------------------------| x2
A|------------------------|
E|1010101010101010-5555555

G|-------------------------------------------------|
D|-------------------------------------------------|
A|-------------------------------------------------|
E|22222222-5555555/1010101010101010x-10101010101010

Verse2 1:27
G|---------------------------------|
D|---------------------------------| x5
A|---------------------------------|
E|555-5-5-999-9-9-222-2-2-222-2-2--|

G|---------------------------------|
D|---------------------------------|
A|---------------------------------|
E|555-5-5-999-9-9-222-2-2-22445577-|

Pre-Chorus 2:04
Chorus 2:10

Bridge 2:29
G|------------------------------------|
D|------------------------------------|
A|------------------------------------|
E|5-5-5-5-599-9-9-97-235-5-5-2352-2-2-|

G|-----------------------------------|
D|-----------------------------------|
A|--------------7------------42--42--|
E|55-5-5-5-599-9-97-235-5-5-2--52--5-|

G|----------------------------------|
D|----------------------------------|
A|------77------99-----------4--2---|
E|55-5-5--79-9-9---22-2-2-2-2--2-52-|

G|-----------------------------------|
D|-----------------------------------|
A|-----7-------9------4x--2x--4x--44-|
E|555-5-5-9-9-9-9922-2---2---2---2---|

Pre-Chorus 2:54 x2

Chorus 3:06
G|----------------|
D|----------------| x2
A|----------------|
E|55555555-9999999

G|------------------------|
D|------------------------| x2
A|------------------------|
E|1010101010101010-5555555

G|--------------------------------------------------|
D|--------------------------------------------------| x3
A|--------------------------------------------------|
E|22222222-5555555/1010101010101010x-10101010101010x
            
Hard to play? Try these video lessons and learn fast. | Correct




comments powered by Disqus
↑ Back to top | Tablatures and chords are parodies/interpretations of the original songs. You may use it for private study, scholarship, research or language learning purposes only