» » »

We Are Scientists, Scene Is Dead Tabs (ver.1)

Artists:  A B C D E F G H I J K L M N O P Q R S T U V W X Y Z # 

Scene Is Dead Tabs (ver.1)

We Are Scientists Tabs
Rating:
0/5 (0 votes)
Scene Is Dead lessons Tabs too difficult? Try these video lessons and learn fast
                
this is pretty much spot on except maybe the solo which is a bit etchy scetchy but hey 
a solo so do what you want.

enjoy

bert

intro

e|-------------------------------------------------------------------------|
b|-------------------------------------------------------------------------|
G|-------------------------------------------------------------------------|
D|-7-7-7-7-7-7-7-7-11-11-11-11-11-11-11-11-4-4-4-4-4-4-4-4-4-4-4-4-4-4-4-4-|
A|-------------------------------------------------------------------------|
E|-------------------------------------------------------------------------|  x 4

e|-------------------------------------------------------------------|
b|-------------------------------------------------------------------|
G|-------------------------------------------------------------------|
D|-7-7-7-7-7-7-7-7-11-11-9-9-7-7-6-6-4-4-6-6-4-4-7-7-4-4-6-6-4-4-7-7-|
A|-------------------------------------------------------------------|
E|-------------------------------------------------------------------|  x 2


verse

e|---------------------------------------------------------|
b|---------------------------------------------------------|
G|---------------------------------------------------------|
D|-7-7-7-7-7-7-7-7-11-11-11-11-11-11-11-11-4~~~~~~~~~~~~~~-|
A|---------------------------------------------------------|
E|---------------------------------------------------------|  x4

pre pre chorus (im. not. goin home with nooooo ooooonnnnnneee etc)

e|-----------------------------------------------------------------|
b|-----------------------------------------------------------------|
G|-----------------------------------------------------------------|
D|-9-9-9-9-9-9-9-9-9-9-9-9-9-9-9-9-9-9-9-9-9-9-9-9-9-9-9-9-9-9-9-9-|
A|----------------------------------------------bend up at the end-|
E|-----------------------------------------------------------------|


pre chorus

e|---------------------------------------| in the changeover between the two
b|---------------------------------------| chords improvise with sliding up and
G|-----------------6-6-6-6-6-6-6-6-------| down the neck, wacking open strings and
D|-7-7-7-7-7-7-7-7-6-6-6-6-6-6-6-6-------| striking the strings behind the nut to
A|-7-7-7-7-7-7-7-7-4-4-4-4-4-4-4-4-------| get all the crunchy inbetweeny sounds.
E|-5-5-5-5-5-5-5-5-----------------  x 2-|


chorus (c'mon get gone etc)

*pt1*
e|---------------------------------|
b|---------------------------------|
G|-7-7-7-7-7-7-7-7-----------------|
D|-7-7-7-7-7-7-7-7---7-7-7-7-7-7-7-|
A|-5-5-5-5-5-5-5-5---7-7-7-7-7-7-7-|
E|-------------------5-5-5-5-5-5-5-|  x 2

*pt2*
e|-----------------------------------------------------------------|
b|---------------------------------------------------6-6-6-6-6-6-6-|
G|-----------------------------------7-7-7-7-7-7-7---7-7-7-7-7-7-7-|
D|-4-4-4-4-4-4-4-4---7-7-7-7-7-7-7---7-7-7-7-7-7-7---7-7-7-7-7-7-7-|
A|-4-4-4-4-4-4-4-4---7-7-7-7-7-7-7---5-5-5-5-5-5-5---5-5-5-5-5-5-5-|
E|-2-2-2-2-2-2-2-2---5-5-5-5-5-5-5---------------------------------|


2nd verse

e|---------------------------------------------------14-14-14-14-14-|
b|---------------------------------------------------14-14-14-14-14-|
G|---------------------------------------------------14-14-14-14-14-|
D|-7-7-7-7-7-7-7-7-11-11-11-11-11-11-11-11-4~~~~~~~~~---------------|
A|------------------------------------------------------------------|
E|------------------------------------------------------------------|  x 6

 pre pre chorus x 1
 pre chorus x 1
 chorus x 1


solo

e|--9--9--9--9-12-12-12-12--9--9--9--9-12-12-12-12--|
b|-10-10-10-10-10-10-10-10-10-10-10-10-10-10-10-10--|
G|--------------------------------------------------|
D|--------------------------------------------------|
A|--------------------------------------------------|
E|--------------------------------------------------|


now is where the timing gets a little too tricky for me but its basically
something along these lines...

e|-------------------------14----------12----------|
b|-14-12----------12-14-12----12-14-12----12-14-12-|
G|-------14-13-14----------------------------------|
D|-------------------------------------------------|
A|-------------------------------------------------|
E|-------------------------------------------------| x about 4

 pre pre chorus x 2
 pre chorus x 1
 chorus *pt1* x 1
 chorus *pt2* x 3

finish on

e|---
b|---
G|---
D|---
A|---
E|-5- use whammy bar to bring tone down as the song finishes

enjoy!
            
Submit corrections

comments powered by Disqus
↑ Back to top | We Are Scientists Tabs for Scene Is Dead. Lyrics for acoustic guitar and electric guitar. Tablatures and chords are parodies/interpretations of the original songs. You may use it for private study, scholarship, research or language learning purposes only