» » »

We Are Scientists, Over And Out Tabs (ver.2)

Artists:  A B C D E F G H I J K L M N O P Q R S T U V W X Y Z # 

Over And Out Tabs (ver.2)

We Are Scientists Tabs
 Rating:
4/5 (4 votes)
Over And Out lessons Tabs too difficult? Try these video lessons and learn fast
1
                We Are Scientists
Safety, Fun, And Learning (In That Order)
Over and Out

Standard Tuning
* = palm mute the notes above this....


Pre-Verse
E|-----------------------------------|
B|-----------------------------------|
G|--------------------------666-777--|
D|--777-777-777-777-777-777-666-777--|  
A|--777-777-777-777-777-777-444-555--|
E|--555-555-555-555-555-555----------| (x2)

E|---------------------------------|
B|---------------------------------|
G|------------------999-999-9-9-9--|
D|--999-999-999-999-999-999-9-9-9--|
A|--999-999-999-999-777-777-7-7-7--|
E|--777-777-777-777----------------|


Verse
E|----------------------------------------------------------------------------------|
B|----------------------------------------------------------------------------------|
G|----------666-666---------999-999-----------------999-13-13-13-14-14-14-16-16-16--|
D|--777-777-666-666-444-444-999-999-999-999-999-999---------------------------------|
A|--777-777-444-444-444-444-777-777-999-999-999-999-777-11-11-11-12-12-12-14-14-14--|
E|--555-555---------222-222---------777-777-777-777---------------------------------|


E|---------------------------------------------------|
B|---------------------------------------------------|
G|----------666-666---------999-999------------------|
D|--777-777-666-666-444-444-999-999-999-999-999-999--|
A|--777-777-444-444-444-444-777-777-999-999-999-999--|
E|--555-555---------222-222---------777-777-777-777--|


E|----------------------------------------------------------------------------------|
B|----------------------------------------------------------------------------------|
G|----------------------------------------------------------------------------------|
D|--11-11-11--11-11-11--11-11-11--11-11-11--12-12-12--12-12-12--12-12-12--12-12-12--|
A|--11-11-11--11-11-11--11-11-11--11-11-11--12-12-12--12-12-12--12-12-12--12-12-12--|
E|--9--9--9---9--9--9---9--9--9---9--9--9---10-10-10--10-10-10--10-10-10--10-10-10--|


E|------------------------------------------|
B|------------------------------------------|
G|------------------------------------------|
D|--11-11-11--11-11-11--11-11-11--11-11-11--|
A|--11-11-11--11-11-11--11-11-11--11-11-11--|
E|--9--9--9---9--9--9---9--9--9---9--9--9---|


Chorus
E|-----------------------------------|
B|-----------------------------------|
G|----------999-999---------777-777--|
D|--777-777-999-999-999-999-777-777--|
A|--777-777-777-777-999-999-555-555--|
E|--555-555---------777-777----------| x3

E|------------------555-555-555-555--|
B|------------------xxx-xxx-xxx-xxx--|
G|--777-777-777-777-777-777-777-777--|
D|--777-777-777-777-777-777-777-777--|
A|--555-555-555-555-555-555-555-555--|
E|-----------------------------------|


REPEAT PRE-VERSE, VERSE, AND CHORUS.

then:
E|-------------------------------------------------------------------|
B|-------------------------------------------------------------------|
G|----------------------------------777-777-777-777------------------|
D|--777-777-666-666-555-555-555-555-777-777-777-777-777-777-777-777--|
A|----------------------------------555-555-555-555-777-777-777-777--|
E|--555-555-444-444-333-333-333-333-----------------555-555-555-555--| (x2)
    *** *** *** *** *** *** *** ***

E|-------------------------------------------------------------------------|
B|--101010-101010-999-999-888-888-888-888----------------------------------|
G|----------------------------------------777-777-777-777-777-777-777-777--|
D|--7-7-7--7-7-7--666-666-555-555-555-555-777-777-777-777-777-777-777-777--|
A|----------------------------------------555-555-555-555-555-555-555-555--|
E|-------------------------------------------------------------------------|
    *** *** *** *** *** *** *** ***

Chorus (a bit different):
E|----------------------------------------|
B|----------------------------------------|
G|----------999-999---------999-11-11-11--|
D|--777-777-999-999-999-999---------------|
A|--777-777-777-777-999-999-777-9--9--9---|
E|--555-555---------777-777---------------| (x2)
    *** *** *** *** *** *** *** *  *  *

E|-------------------------------------------------------------------|
B|-------------------------------------------------------------------|
G|----------999-999---------777-777-777-777-777-777-777-777-777-777--|
D|--777-777-999-999-999-999-777-777-777-777-777-777-777-777-777-777--|
A|--777-777-777-777-999-999-555-555-555-555-555-555-555-555-555-555--|
E|--555-555---------777-777------------------------------------------|
    *** *** *** *** *** *** *** *** *** *** *** *** *** *** *** ***

REPEAT PRE-VERSE.

good luck (:
            
Submit corrections

comments powered by Disqus
↑ Back to top | We Are Scientists Tabs for Over And Out. Lyrics for acoustic guitar and electric guitar. 1 Tablatures and chords are parodies/interpretations of the original songs. You may use it for private study, scholarship, research or language learning purposes only