» » »

We Are Scientists, Ode To Star L23 Tabs (ver.1)

Artists:  A B C D E F G H I J K L M N O P Q R S T U V W X Y Z # 

Ode To Star L23 Tabs (ver.1)

We Are Scientists Tabs
 Rating:
4/5 (4 votes)
Ode To Star L23 lessons Tabs too difficult? Try these video lessons and learn fast
1
                We Are Scientists
Safety, Fun and Learning (In That Order)
Ode to Star L23

Pre-Verse
E|------------------------------------------------------|
B|------------------------------------------------------|
G|--7-7--7-7--7-----------------------------------------|
D|--7-7--7-7--7--5-5--5-5--5--9-9--9-9--9--8-8--8-8--8--|
A|--5-5--5-5--5--5-5--5-5--5--9-9--9-9--9--8-8--8-8--8--|
E|---------------3-3--3-3--3--7-7--7-7--7--6-6--6-6--6--| (x2)

Verse
E|--------------------------------------------------|
B|--------------------------------------------------|
G|-------------------------------------99-77-66-77--|
D|--77777777-1111111111111111-99999999--------------|
A|-------------------------------------77-55-44-55--|
E|--55555555-9-9-9-9-9-9-9-9--77777777--------------| (x4)
 

(this next part is palm muted):
E|--------------------------------------|
B|--------------------------------------|
G|--77777777-6666666-44444444-33333333--|
D|--------------------------------------|
A|--55555555-4444444-22222222-11111111--|
E|--------------------------------------|

E|-----------------------------------|
B|-----------------------------------|
G|-----------------------------------|
D|--55555555-55555555-55-55-55-55-5--|
A|--55555555-55555555-55-55-55-55-5--|
E|--33333333-33333333-33-33-33-33-3--|

Chorus (played twice)
E|--------------------|
B|--------------------|
G|--7777--------------|
D|--7777-7-9-9999999--|
A|--5555-7-9-9999999--|
E|-------5-7-7777777--| (x2)

E|---------------------|
B|---------------------|
G|---------------------|
D|--55555555-88888888--|
A|--55555555-88888888--|
E|--33333333-66666666--|

Repeat Pre-Verse, Verse, and Chorus again.

Then play:
E|-------------------------------------------------------|
B|-------------------------------------------------------|
G|--77777777-99999999-1111111111111111-1212121212121212--|
D|-------------------------------------------------------|
A|--55555555-77777777-9-9-9-9-9-9-9-9--1010101010101010--|
E|-------------------------------------------------------| (x6)

E|------------------------------------------------------------------|
B|------------------------------------------------------------------|
G|--1111111111111111-99-77-66-77-1212121212121212-1111111111111111--|
D|------------------------------------------------------------------|
A|--9-9-9-9-9-9-9-9--77-55-44-55-1010101010101010-9-9-9-9-9-9-9-9---|
E|------------------------------------------------------------------| (x3)

E|-------------------------------------------------------------------|
B|-------------------------------------------------------------------|
G|--1111111111111111-99-77-66-77-12121212-14141414-1515151515151515--|
D|-------------------------------------------------------------------|
A|--9-9-9-9-9-9-9-9--77-55-44-55-10101010-12121212-1313131313131313--|
E|-------------------------------------------------------------------|


Repeat Chorus, and add this to the end:
E|-----------------------------------------------|
B|-----------------------------------------------|
G|--99999999----------99999999-1212121212121212--|
D|--99999999-55555555-99999999-1212121212121212--|
A|--77777777-55555555-77777777-1010101010101010--|
E|-----------33333333----------------------------|

Lasty, repeat the pre-verse.
            
Submit corrections

comments powered by Disqus
↑ Back to top | We Are Scientists Tabs for Ode To Star L23. Lyrics for acoustic guitar and electric guitar. 1 Tablatures and chords are parodies/interpretations of the original songs. You may use it for private study, scholarship, research or language learning purposes only