» » »

Nobody Move, Nobody Get Hurt Bass tabs (ver.2)

Artists:  A B C D E F G H I J K L M N O P Q R S T U V W X Y Z # 

Nobody Move, Nobody Get Hurt Bass tabs (ver.2)

We Are Scientists
Rating:
0/5 (0 votes)

Hard to play? Try these video lessons and learn fast.
                Nobody Move Nobody Get Hurt
We Are Scientists

A.R. by Evan Wright

(11 are elevens. There are no 1’s in the song)


Intro   (11, 4x)       (11, 3x)
G: ---------------------------|
D: ---------------------------|   (2x)
A: -11111111----111111--------|
E: ---------------------------|

Verse 1
G: ----------------------------------------------------------------------|
D: ----------------------------------------------------------------------|    (2x)
A: -11111111----111111-----7777----777-----4444----444-----7777-----666--|
E: ----------------------------------------------------------------------|

Chorus part 1                                                                  (6, 16x)
G: ----------------------------------------------------------------------------------|
D: ----------------------------------------------------------------------------------|
A: -22------44------22------44------22------44------6666666666666666-----------------|
E: ----------------------------------------------------------------------------------|

Chorus part 2                                                               (6, 9x)
G ---44--4---66-6--44--44--66--6--44--4--66--6---------88------------------88---------------|
D------------------------------------------------------------------88-------------------88--|
A-22---22--44--4-22---2--44--4-22---2--44--4-666666666----666666666-------------------------|
E-------------------------------------------------------------------------------------------|

Pre verse       (11, 8x)
G: ----------------------------------------|
D: ----------------------------------------|      (2x)
A: -11-11-11-11-11-11-11-11----------------|
E: ----------------------------------------|

Verse 2            (11, 8x)                  (7, 8x)                  (4, 8x)            
      (7, 8x)                  (6, 8x)
G: ------------------------------------------------------------------------------------------|
D: ------------------------------------------------------------------------------------------|
A: -11-11-11-11-11-11-11-11-7-7-7-7-7-7-7-7-4-4-4-4-4-4-4-4-7-7-7-7-7-7-7-7-6-6-6-6-6-6-6-6--|
E: ------------------------------------------------------------------------------------------|

Chorus part 1                                                                  (6, 16x)
G: ----------------------------------------------------------------------------------|
D: ----------------------------------------------------------------------------------|
A: -22------44------22------44------22------44------6666666666666666-----------------|
E: ----------------------------------------------------------------------------------|


Chorus part 2                                                               (6, 9x)
G ---44--4---66-6--44--44--66--6--44--4--66--6---------88-------------------88--------------|
D------------------------------------------------------------------88-------------------88--|
A-22---22--44--4-22---2--44--4-22---2--44--4-666666666----666666666-------------------------|
E-------------------------------------------------------------------------------------------|

Solo           (11, 8x)                        (7, 8x)                (4, 8x)            
      (7, 8x)                   (6, 8x)
G: ------------------------------------------------------------------------------------------|
D: ------------------------------------------------------------------------------------------|
A: -11-11-11-11-11-11-11-11-7-7-7-7-7-7-7-7-4-4-4-4-4-4-4-4-7-7-7-7-7-7-7-7-6-6-6-6-6-6-6-6--|
E: ------------------------------------------------------------------------------------------|

Chorus part 1                                                                  (6, 16x)
G: ----------------------------------------------------------------------------------|
D: ----------------------------------------------------------------------------------|
A: -22------44------22------44------22------44------6666666666666666-----------------|
E: ----------------------------------------------------------------------------------|

Chorus part 2                                                               (6, 9x)
G ---44--4---66-6--44--44--66--6--44--4--66--6---------88------------------88---------------|
D------------------------------------------------------------------88-------------------88--|
A-22---22--44--4-22---2--44--4-22---2--44--4-666666666----666666666-------------------------|
E-------------------------------------------------------------------------------------------|

End on
G: -----
D: -----
A: -11-
E: -----
            
Hard to play? Try these video lessons and learn fast. | Correct




comments powered by Disqus
↑ Back to top | Tablatures and chords are parodies/interpretations of the original songs. You may use it for private study, scholarship, research or language learning purposes only