>
 >
Nobody Move Nobody Get Hurt

Nobody Move Nobody Get Hurt Bass Tabs

We Are Scientists - Nobody Move Nobody Get Hurt chords, tabs, tablatures, lyrics

Guitar lessons | Add/correct | Request | Top 50 tabs Artists:  A B C D E F G H I J K L M N O P Q R S T U V W X Y Z 0-9

Nobody Move Nobody Get Hurt Bass Tabs – We Are Scientists

CD, Sheet music, Poster

Do you like Nobody Move Nobody Get Hurt? Share with your friends now
Bass TabsBass Tabs v2
-------------------------------------------------------------------------------
			  Nobody Move, Nobody Get Hurt - We Are Scientists
-------------------------------------------------------------------------------



Tuning: normal
intro x1
verse x2
pre chorus x1
chorus x1
intro x1
verse x2
pre chorus x1
chorus x1
verse x2
pre chorus x1
chorus x1

on the second verse it is the same notes but a slightly different rythm

Intro
G|----------------------------------------------------------------------------------|
D|-6-66---6-66----------------------------------------------------------------------|
A|----------------------------------------------------------------------------------|
E|----------------------------------------------------------------------------------|

Verse
G|-----------------------------------------------------------------------------------|
D|-6-66-2-22-------------------------------------------------------------------------|
A|-----------4-44-7-76---------------------------------------------------------------|
E|-----------------------------------------------------------------------------------|

Pre-chorus
G|-------------------------------------|
D|-------------------------------------|
A|-22-44-22-44-22-44-6666666666666666--|
E|-------------------------------------|

chorus
G|---44--4---66-6--44--4--66--6--44--4--66--6---------88-----------88----|
D|------------------------------------------------------88-----------88--|
A|-22---2--44--4-22---2--44--4-22---2--44--4-666666666----666666666------|
E|-----------------------------------------------------------------------|





Comments


Popular We Are Scientists tabs & chords
I Don’T Bite Bass Tabs
Callback Chords
Chick Lit Chords
Lethal Enforcer Chords
Textbook Chords
After Hours Intro Tabs
Great Escape 1 Tabs
Scene Is Dead Tabs
Worth The Wait 1 Tabs
Chick Lit Ukulele


Song lyrics



↑ Back to top | Tablatures and chords are parodies/interpretations of the original songs. You may use it for private study, scholarship, research or language learning purposes only
© 2014 AZChords.com Contact us | Privacy policy | DMCA | Add/correct tabs | Request tabs | Top 50 tabs