» » »

We Are Scientists, Let's See It Tabs (ver.3)

Artists:  A B C D E F G H I J K L M N O P Q R S T U V W X Y Z # 

Let's See It Tabs (ver.3)

We Are Scientists Tabs
Rating:
0/5 (0 votes)
Let's See It lessons Tabs too difficult? Try these video lessons and learn fast
                (1)
We Are Scientists
Let's See It
Brain Thrust Mastery

Here goes my first tab.... I learned this all by ear. This is my favorite band by
the way. They're amazing.

Intro/Verse
E---------------------------------------------------------------------|
B---------------------------------------------------------------------|
G--------7--------------------------------7---------------------------|
D----7h9---9-7-9------------7-7-------7h9---9-7-9---------------------|
A--7--------------10-101010--------------------------------10-9-------|
E-------------------------------10-10-------------8-888-10------------| (x6)


E-------------------------------------------------------------|
B-------------------------------------------------------------|
G--------7--------------------------------7-------------------|
D----7h9---9-7-9------------7-7-------7h9---9-7-9---10--------|
A--7--------------10-101010-------------------------10-(x16)--|
E-------------------------------10-10----------------8--------|

Pre-Chorus (When they're singing, "oh oh oh, oh oh oh")
E----------------------------------------------------------|
B----------------------------------------------------------|
G----------------------------------------------------------|
D------10-9----------10-9----------10-9-----------10-9-----|
A-----------10-------------10--7-7------10-7-7-7--------10-|
E--8-8---------8-8-8---------------------------------------| (x2)


Chorus
E-------------------------------------|
B-------------------------------------|
G--------------------5--------7-------|
D--5--------2--------5-(x16)--7-(x16)-|
A--5-(x16)--2-(x16)--3--------5-------|
E--3--------0-------------------------|


Repeat Verse and Chorus
Then play the Pre-Chorus again, but this time, on the last "Oh oh oh, oh oh oh", play:
E-----------|
B-----------|
G-----------|
D--12-------|
A--12-(x16)-|
E--10-------|


The next part is really the bass but you can play:
E------------------------|
B------------------------|
G------------------------|
D------------------------|
A----2-0-2-0-2-0-2h3h2p0-|
E--0---------------------| (x3)

Then come in with this:
E----------|
B----------|
G--7-------|
D--7-(x16)-|
A--5-------|
E----------|


Then you'll play the chorus but it's a little different. It should look like this:
E--------------------------------------------|
B--------------------------------------------|
G--------------------5--------7-------8------|
D--5--------2--------5-(x16)--7-(x8)--8-(x8)-|
A--5-(x16)--2-(x16)--3--------5-------6------|
E--3--------0--------------------------------|

Lastly just repeat the riff from the verse twice.

Hope this worked out for you!
            

comments powered by Disqus
↑ Back to top | We Are Scientists Tabs for Let's See It. Lyrics for acoustic guitar and electric guitar. Tablatures and chords are parodies/interpretations of the original songs. You may use it for private study, scholarship, research or language learning purposes only