>
 >
Lethal Enforcer

Lethal Enforcer Bass Tabs

We Are Scientists - Lethal Enforcer chords, tabs, tablatures, lyrics

Guitar lessons | Add/correct | Request | Top 50 tabs Artists:  A B C D E F G H I J K L M N O P Q R S T U V W X Y Z 0-9

Lethal Enforcer Bass Tabs – We Are Scientists

CD, Sheet music, Poster

Do you like Lethal Enforcer? Share with your friends now
Bass TabsBass Tabs v2ChordsTabsUkulele


Tuning:Standard

Nice Song.
I hope erverything is right, if not correct and comment.
Enjoy and please rate ;)


Intro:
G|------------------------------------9------9------------|
D|------11--------11----------------9------9--------------|
A|------------------------------7------7----------7-------|x2
E|-7/9-------7/9------9--7--------------------------7-----|

Verse:
G|--------------------------------------------------------|
D|------11------------------------------------------------|
A|------------------------------------7-------------------|x2
E|-7/9-------7/9--9-9-7---------0--0-------0---0-0--0-----|

Pre Chorus
G|--------------------------------------------------------|
D|--------------------------------------------------------|
A|-2--2--2-2-2-2------------------------------------------|
E|----------------5--5-5--5-5-5--5-4----------------------|

G|--------------------------------------------------------|
D|--------------------------------------------------------|
A|-2--2--2-2-2-2----0--0-0/-12-12-12-12-12-12-------------|
E|--------------------------------------------------------|

Verse:
G|--------------------------------------------------------|
D|------11--------11--------------------------------------|
A|----------------------------------7---------------------|
E|-7/9-------7/9---------------0--0-----0---0-0-----------|

G|--------------------------------------------------------|
D|------11------------------------------------------------|
A|------------------------------------7-------------------|
E|-7/9-------7/9--9-7-4-2-------0--0-------0---0-0--------|

Pre Chorus:
G|--------------------------------------------------------|
D|--------------------------------------------------------|
A|-2--2--2--2-2-------------------------------------------|
E|--------------5--5--5-5-5--5-4--------------------------|

G|--------------------------------------------------------|
D|--------------------------------------------------------|
A|-2--2--2-2-----2-2---0-0/-12-12-12-12-12-12-------------|
E|-----------4-2-----4------------------------------------|

Chorus:
G|--------------9-----------------------------------------|
D|------7-----9---------9---------------------------------|
A|---------7--------------/12-12-12-12-12-12-12-----------|
E|-5-5-------------7-7------------------------------------|

G|--------------9---------------------------------------------------------|
D|------------9---------9-------------------------------------------------|
A|---------7--------------12-12-12-12-12-12-12-12-12-12-12-12-12-12-12-12-|
E|-5---------------7-7----------------------------------------------------|

Bridge:
G|---------------------------|
D|-------11-------11---------|
A|--------------------7------|x2
E|--7/9------7/9--------7----|

Verse:
G|--------------------------------------------------------|
D|------11------------------------------------------------|
A|------------------------------------7-------------------|x2
E|-7/9-------7/9--9-9-7---------0--0-------0---0-0--0-----|


Pre Chorus:
G|--------------------------------------------------------|
D|--------------------------------------------------------|
A|-2--2--2--2-2-------------------------------------------|
E|--------------5--5--5-5-5--5-4--------------------------|

G|--------------------------------------------------------|
D|--------------------------------------------------------|
A|-2--2--2-2-----2-2---0-0/-12-12-12-12-12-12-------------|
E|-----------4-2-----4------------------------------------|

Chorus:
G|--------------9-----------------------------------------|
D|------7-----9---------9---------------------------------|
A|---------7--------------/12-12-12-12-12-12-12-----------|
E|-5-5-------------7-7------------------------------------|

G|--------------9------------------------------------------|
D|------------9---------9----------------------------------|
A|---------7--------------/12-12-12-12-12-12-12------------|
E|-5---------------7-7-------------------------------------|

G|--------------9-----------------------------------------|
D|------7-----9---------9---------------------------------|
A|---------7--------------/12-12-12-12-12-12-12-----------|
E|-5-5-------------7-7------------------------------------|

G|---------------6----------------------------------------|
D|------7-----6--------9----------------------------------|
A|---------4-------------/12-12-12-12-12-12-12------------|
E|-5-5-------------7-7------------------------------------|

Mid:
G|--------------------------------------------------------|
D|--------------------------------------------------------|
A|--------------------------------------------------------|
E|--5--4--5--4--5--4--2--2--2-2--0-2----------------------|

G|--------------------------------------------------------|
D|--------------------------------------------------------|
A|-/12-11-9-----------------------------------------------|
E|----------12-11-9--2--2--2-2--2-2-----------------------|

G|-----------------------------------------------------------|
D|-----------------------------------------------------------|
A|-------7-9-12-14-14-14-14-14-14-14-14-14-14-14-14-14-14-14-|
E|-5-7-9-----------------------------------------------------|

G|------------------------------------9------9------------|
D|------11--------11----------------9------9--------------|
A|------------------------------7------7----------7-------|x5
E|-7/9-------7/9------------------------------------7-----|


G|------------------------------------9-------------------|
D|------11--------11----------------9---------------------|
A|------------------------------7----------7--7-7---------|
E|-7/9-------7/9------------------------------------------|

Chorus:
G|--------------9-----------------------------------------|
D|------7-----9---------9---------------------------------|
A|---------7--------------/12-12-12-12-12-12-12-----------|
E|-5-5-------------7-7------------------------------------|

G|--------------9------------------------------------------|
D|----7-----------------9----------------------------------|
A|---------7--------------/12-12-12-12-12-12-12------------|
E|-5---------------7-7-------------------------------------|

G|--------------9-----------------------------------------|
D|------7-----9---------9---------------------------------|
A|---------7--------------/12-12-12-12-12-12-12-----------|
E|-5-5-------------7-7------------------------------------|

End: Fade out
G|---------------6----------------------------------------|
D|------7-----6--------9----------------------------------|
A|---------4-------------/12-12-12-12-12-12-12------------|x3
E|-5-5-------------7-7------------------------------------|


| /  slide up
| \  slide down
| h  hammer-on
| p  pull-off
| ~  vibrato
| +  harmonic
| x  Mute note


Questions?





Comments


Popular We Are Scientists tabs & chords
Great Escape Bass Tabs
Lousy Reputation 3 Bass Tabs
After Hours 3 Chords
Cash Cow 2 Tabs
Central Ac Tabs
It's A Hit Tabs
Lets See It Intro Tabs
Nice Guys Tabs
Sie Hat Was Vermisst Intro Tabs
Super Anytime Double-x Mystery Tabs


Song lyrics



↑ Back to top | Tablatures and chords are parodies/interpretations of the original songs. You may use it for private study, scholarship, research or language learning purposes only
© 2014 AZChords.com Contact us | Privacy policy | DMCA | Add/correct tabs | Request tabs | Top 50 tabs