» » »

We Are Scientists, It's A Hit Tabs (ver.2)

Artists:  A B C D E F G H I J K L M N O P Q R S T U V W X Y Z # 

It's A Hit Tabs (ver.2)

We Are Scientists Tabs
Rating:
0/5 (0 votes)
It's A Hit lessons Tabs too difficult? Try these video lessons and learn fast
                "(1)


Tuning: EADGBe

If I put (-- --) around words, that means play that part, as in
--Chorus-- would mean "play the chorus again here."


The cool little bass thingy, then:

Intro: 0:03
e|---------------------------------------|
B|--9-9-9-9-9-9--121212121212------------|
G|--9-9-9-9-9-9--9-9-9-9-9-9-------------|
D|---------------------------------------|
A|---------------------------------------|
E|---------------------------------------|

Verse 0:05
e|---------------------------------------|
B|--9999999--7777777--9999999--9999999---|
G|---------------------------------------|
D|--6666666--4444444--6666666--6666666---| x4
A|---------------------------------------|
E|---------------------------------------|

Chorus: 0:29
e|--777----------77----------------------|
B|------77-99-55----77-99-5--------------|
G|---------------------------------------|
D|---------------------------------------|
A|---------------------------------------| x8
E|---------------------------------------|

Bridge: 0:54
e|-12-12-12-12-12-12---12-12-12-12-12-12-------------------------------------|
B|-12-12-12-12-12-12---12-12-12-12-12-12---9-9-9-9-9-9---12-12-12-12-12-12---|
G|---------------------11-11-11-11-11-11---8-8-8-8-8-8---11-11-11-11-11-11---|
D|---------------------------------------------------------------------------|
A|---------------------------------------------------------------------------|
E|---------------------------------------------------------------------------|

Verse 2: 0:59
e|---------------------------------------|
B|---------------------------------------|
G|---------------------------------------|
D|--6666666--4444444--6666666--6666666---| x4
A|--*******--*******--*******--*******---|
E|---------------------------------------|
* = palm mute


--Chorus-- 1:23


--Bridge-- 1:48, but with this at the end of it:

e|--------------------------------------------------------------------|
B|--9-9-9-9-9-9---12-12-12-12-12-12---9-9-9-9-9-9---12-12-12-12-12-12-|
G|--8-8-8-8-8-8---11-11-11-11-11-11---8-8-8-8-8-8---11-11-11-11-11-11-|
D|--------------------------------------------------------------------|
A|--------------------------------------------------------------------|
E|--------------------------------------------------------------------|


--Verse-- 2:00


Chorus 2: 2:24
e|--777----------77----------------------|
B|--***-77-99-55-**-77-99-5--------------|
G|------**-**-**----**-**-*--------------|
D|---------------------------------------|
A|---------------------------------------| x8
E|---------------------------------------|
* = slightly palm mute

--Chorus-- 2:47

--Bridge-- 3:12, but with this at the end of it again:

e|--------------------------------------------------------------------|
B|--9-9-9-9-9-9---12-12-12-12-12-12---9-9-9-9-9-9---12-12-12-12-12-12-|
G|--8-8-8-8-8-8---11-11-11-11-11-11---8-8-8-8-8-8---11-11-11-11-11-11-|
D|--------------------------------------------------------------------|
A|--------------------------------------------------------------------|
E|--------------------------------------------------------------------|
"            
Submit corrections

comments powered by Disqus
↑ Back to top | We Are Scientists Tabs for It's A Hit. Lyrics for acoustic guitar and electric guitar. Tablatures and chords are parodies/interpretations of the original songs. You may use it for private study, scholarship, research or language learning purposes only