» » »

Inaction Bass tabs (ver.4)

Artists:  A B C D E F G H I J K L M N O P Q R S T U V W X Y Z # 

Inaction Bass tabs (ver.4)

We Are Scientists
Rating:
0/5 (0 votes)

Hard to play? Try these video lessons and learn fast.
                Band: We Are Scientists	

=============
INTRO / VERSE
=============

G|-------------------------------567--|
D|-7777777777777555-7777777777777-----|
A|------------------------------------|
E|------------------------------------| x7

G|------------------------------------|
D|-7777777777777555-7777777777777777--|
A|------------------------------------|
E|------------------------------------|

======
CHORUS
======

G|----1010----1010----1010----1010-------1212-----1212----1212----1212-|
D|---------------------------------------------------------------------|
A|-88------88------88------88------8/1010-----1010----1010----1010-----|
E|---------------------------------------------------------------------|

G|----1010----1010----1010----1010-----77---77--77--77--|
D|------------------------------------------------------|
A|-88------88------88------88------8\55---55--55--55----|
E|------------------------------------------------------|

=======
BRIDGE
=======

G|-------------------------------567--|
D|-7777777777777555-7777777777777-----|
A|------------------------------------|
E|------------------------------------| 

=======
VERSE 2
=======

"It's hard to rely on the ryhthm section
when they're all packin' up and headin' for the exit.."

G|-----------------------------------------------------|
D|-77777777-99999999-1010101010101010-1212121212121212-|
A|-----------------------------------------------------|
E|-----------------------------------------------------|

=========
BRIDGE 2
=========

How am -I- -supposed- -to make- -this happen- (listen to the vocals and opening of hi-hat)

G|------------------|
D|-7---7---7---7----|
A|---00--00--00--00-|
E|------------------| x4

======
CHORUS
======

G|----1010----1010----1010----1010-------1212----1212----1212----1212-|
D|--------------------------------------------------------------------|
A|-88------88------88------88------8/1010-----1010---1010----1010-----|
E|--------------------------------------------------------------------|

G|----1010----1010----1010----1010-----77---77--77--77--|
D|------------------------------------------------------|
A|-88------88------88------88------8\55---55--55--55----|
E|------------------------------------------------------|

======
RIFF
=====

G|------------|
D|-7-5--------|
A|------765---|
E|---------85-|

==========
FINAL RIFF
==========

Same as above, except for the very last time..

G|----------------|
D|-7-5------------|
A|-----765--------|
E|---------85/3h5-|
            
Hard to play? Try these video lessons and learn fast. | Correct




comments powered by Disqus
↑ Back to top | Tablatures and chords are parodies/interpretations of the original songs. You may use it for private study, scholarship, research or language learning purposes only