» » »

We Are Scientists, Impatience Bass tabs (ver.1)

Artists:  A B C D E F G H I J K L M N O P Q R S T U V W X Y Z # 

Impatience Bass tabs (ver.1)

We Are Scientists Tabs
 Rating:
4/5 (4 votes)
Impatience lessons Tabs too difficult? Try these video lessons and learn fast
                Intro
G|--------------------------------|
D|--------------------------------|
A|22222223444444442222222244444443|
E|--------------------------------|

Verse 1
G|-----------------|
D|-----------------|
A|7777777----------|
E|-------3/55555555|

Chorus
G|------------------------9-997-----------------|
D|-----------------------------9----------------|
A|----------------777775h7----------------------|
E|7777777755555555--------------7777777755555555|

Verse 1 x2

Verse 2
This is played as the first time of verse 2, on the record, Chris then plays the verse 1 
for the rest of verse 2. I think its more interesting to play the verse 2 part for the 
of verse 2, makes it more interesting.
G|-----------------|
D|-----------------|
A|777775-----------|
E|------73/55555555|

Chorus 2
G|------------------------9-997---------------------------------|
D|-----------------------------9--------------------------------|
A|----------------777775h7----------------------7777777777777777|
E|7777777755555555--------------7777777755555555----------------|

Break
G|--------------------------------|
D|--------------------------------|
A|---------------/7---------------|
E|5-----------------------5-------|x2

G|----------------------------------|
D|----------------------------------|
A|7------------------------44-4-77-7|
E|--------5-------55-5-77-7---------|

Verse 1 x2

Intro x1

Verse 1/Verse 2 x8(whichever one you want, you can switch between the two if you want to)

Chorus 1

Verse 1 until end, finish on 7th fret on A string.

Thats all. This is a good song, I'm liking the album.
            
Submit corrections

comments powered by Disqus
↑ Back to top | We Are Scientists Bass for Impatience. Lyrics for acoustic guitar and electric guitar. Tablatures and chords are parodies/interpretations of the original songs. You may use it for private study, scholarship, research or language learning purposes only