» » »

We Are Scientists, Hoppipolla Tabs (ver.2)

Artists:  A B C D E F G H I J K L M N O P Q R S T U V W X Y Z # 

Hoppipolla Tabs (ver.2)

We Are Scientists Tabs
Rating:
5/5 (2 votes)
Hard to play? Try these video lessons and learn fast.
                (Intro)
*-*-*-*-*-*-*-*-*-*-*-*-*-*-*-*-*-*-*-*-*-*-*-*-*-*-*-*-*-*-*-*-*-*-*-*-*-*-*-*-*-*-*
e|--------------------9----------9----10-9---------------9----10-9------|
B|------10---------10---------10---10------10---------10---10------10---|
G|----9----9-----9----------9-----------------9-----9-----------------9-|
D|-11---------12---------12----------------------12---------------------|
A|----------------------------------------------------------------------|
E|----------------------------------------------------------------------|
		                                                *-(x8)-*
e|---------9--------------------9----10-9---------------9-|
B|------10--------10-12------10---10------10---------10---|
G|----9---------9----------9-----------------9-----9------|
D|-12---------9----------9----------------------12--------|
A|--------------------------------------------------------|
E|--------------------------------------------------------|
*-*-*-*-*-*-*-*-*-*-*-*-*-*-*-*-*-*-*-*-*-*-*-*-*-*-*-*-*-*-*-*-*-*-*-*-*-*-*-*-*-*-*

e|------------|
B|-------12---|
G|----9-----9-|
D|-11---------| (x30)
A|------------|
E|------------|

e|----------------------------------------------|
B|-15\14--14\12--12\10-10-12-12/14--10--10--/15-|
G|----------------------------------------------|
D|----------------------------------------------| (x2)
A|----------------------------------------------|
E|----------------------------------------------|

e|------------|
B|-------12---|
G|----9-----9-|
D|-11---------| (x30)
A|------------|
E|------------|

e|----------------------------------------------|
B|-15\14--14\12--12\10-10-12-12/14--10--10--/15-|
G|----------------------------------------------|
D|----------------------------------------------| (x4)
A|----------------------------------------------|
E|----------------------------------------------|

*-*-*-*-*-*-*-*-*-*-*-*-*-*-*-*-*-*-*-*-*-*-*-*-*-*-*
e|--------------------------|----------------------|
B|-12--12------12------12---|-10------10------10---|
G|--------9-------9-------9-|----9-------9-------9-|
D|----------11------11------|------11------11------|
A|--------------------------|----------------------|
E|--------------------------|----------------------|
	                                           *-(x2)-*
e|---------------------|---------------------|
B|-9------10------12---|-9------10------12---|
G|---9-------9-------9-|---9-------9-------9-|
D|-----11------11------|-----11------11------|
A|---------------------|---------------------|
E|---------------------|---------------------|
*-*-*-*-*-*-*-*-*-*-*-*-*-*-*-*-*-*-*-*-*-*-*-*-*-*-*
            

comments powered by Disqus
↑ Back to top | We Are Scientists Tabs for Hoppipolla. Lyrics for acoustic guitar and electric guitar. Tablatures and chords are parodies/interpretations of the original songs. You may use it for private study, scholarship, research or language learning purposes only