>
 >
Hoppipolla

Hoppipolla Guitar Tabs

We Are Scientists - Hoppipolla chords, tabs, tablatures, lyrics

Guitar lessons | Add/correct | Request | Top 50 tabs Artists:  A B C D E F G H I J K L M N O P Q R S T U V W X Y Z 0-9

Hoppipolla Guitar Tabs – We Are Scientists

CD, Sheet music, Poster

Do you like Hoppipolla? Share with your friends now
Tabs
-------------------------------------------------------------------------------
               Hoppipolla  We Are Scientists (Sigur Ros Cover)
-------------------------------------------------------------------------------

Tuning: Standard E



Intro
[Guitar 1]
e|------------------------11----------11----12-11----------------------------|
B|---------12----------12----------12----12-------12-------------------------|
G|------11----11----11----------11-------------------11----------------------|
D|---13----------14----------14-------------------------14-------------------|
A|---------------------------------------------------------------------------|
E|---------------------------------------------------------------------------|

[Guitar 2]
e|---------------------------------------------------------------------------|
B|---------------------------------------------------------------------------|
G|---------------------------------------------------------------------------|
D|---------------------------------------------------------------------------|
A|------------------------------------------14-14-14-14-14-------------------|
E|---------------------------------------------------------------------------|

[Guitar 1]
e|--------11----12-11----------------11----12-11-----------------------------|
B|-----12----12-------12----------12----12-------12--------------------------|
G|-----------------------11----11-------------------11-----------------------|
D|--------------------------14-------------------------14--------------------|
A|---------------------------------------------------------------------------|
E|---------------------------------------------------------------------------|

[Guitar 2]
e|---------------------------------------------------------------------------|
B|---------------------------------------------------------------------------|
G|---------------------------------------------------------------------------|
D|---------------------------------------------------------------------------|
A|---14-14-14---11-11-11-11-11-11-11-11---9--9--9--9--9----------------------|
E|---------------------------------------------------------------------------|

[Guitar 1]
e|--------11----12-11----------------11--------------------------------------|
B|-----12----12-------12----------12-----------------------------------------|
G|--11-------------------11----11--------------------------------------------|
D|--------------------------14-----------------------------------------------|
A|---------------------------------------------------------------------------|
E|---------------------------------------------------------------------------|

[Guitar 2]
e|---------------------------------------------------------------------------|
B|---------------------------------------------------------------------------|
G|---------------------------------------------------------------------------|
D|---------------------------------------------------------------------------|
A|---9--9--9----7--7--7--7--7--7--7--7---------------------------------------|
E|---------------------------------------------------------------------------|


Intro Continued
[Guitar 1]
e|------------------------11----------11----12-11----------------------------|
B|---------12----------12----------12----12-------12-------------------------|
G|------11----11----11----------11-------------------11----------------------|
D|---13----------14----------14-------------------------14-------------------|
A|---------------------------------------------------------------------------|
E|---------------------------------------------------------------------------|

[Guitar 2]
e|---------------------------------------------------------------------------|
B|---------------------------------------------------------------------------|
G|---------------------------------------------------------------------------|
D|---16-16-16-16-16-16-16-16-16-16-16-16----16-16-16-16-16-------------------|
A|---14-14-14-14-14-14-14-14-14-14-14-14----14-14-14-14-14-------------------|
E|---------------------------------------------------------------------------|

[Guitar 1]
e|--------11----12-11----------------11----12-11-----------------------------|
B|-----12----12-------12----------12----12-------12--------------------------|
G|-----------------------11----11-------------------11-----------------------|
D|--------------------------14-------------------------14--------------------|
A|---------------------------------------------------------------------------|
E|---------------------------------------------------------------------------|

[Guitar 2]
e|---------------------------------------------------------------------------|
B|---------------------------------------------------------------------------|
G|---------------------------------------------------------------------------|
D|-----16-16-16-13-13-13-13-13-13-13-13----11-11-11-11-11--------------------|
A|-----14-14-14-11-11-11-11-11-11-11-11-----9--9--9--9--9--------------------|
E|---------------------------------------------------------------------------|

[Guitar 1]
e|--------11----12-11----------------11--------------------------------------|
B|-----12----12-------12----------12-----------------------------------------|
G|--11-------------------11----11--------------------------------------------|
D|--------------------------14-----------------------------------------------|
A|---------------------------------------------------------------------------|
E|---------------------------------------------------------------------------|

[Guitar 2]
e|---------------------------------------------------------------------------|
B|---------------------------------------------------------------------------|
G|---------------------------------------------------------------------------|
D|--11-11-11----9--9--9--9--9--9--9--9---------------------------------------|
A|---9--9--9----7--7--7--7--7--7--7--7---------------------------------------|
E|---------------------------------------------------------------------------|

Intro Continued
 [Guitar 1]
e|------------------------11----------11----12-11----------------------------|
B|---------12----------12----------12----12-------12-------------------------|
G|------11----11----11----------11-------------------11----------------------|
D|---13----------14----------14-------------------------14-------------------|
A|---------------------------------------------------------------------------|
E|---------------------------------------------------------------------------|

[Guitar 2]
e|---------------------------------------------------------------------------|
B|---------------------------------------------------------------------------|
G|------------------------------------------16-16-16-16-16-------------------|
D|---16-16-16-16-16-16-16-16-16-16-16-16----16-16-16-16-16-------------------|
A|---14-14-14-14-14-14-14-14-14-14-14-14----14-14-14-14-14-------------------|
E|------------------------------------------14-14-14-14-14-------------------|

[Guitar 1]
e|--------11----12-11----------------11----12-11-----------------------------|
B|-----12----12-------12----------12----12-------12--------------------------|
G|-----------------------11----11-------------------11-----------------------|
D|--------------------------14-------------------------14--------------------|
A|---------------------------------------------------------------------------|
E|---------------------------------------------------------------------------|

[Guitar 2]
e|---------------------------------------------------------------------------|
B|---------------------------------------------------------------------------|
G|-----16-16-16-13-13-13-13-13-13-13-13----11-11-11-11-11--------------------|
D|-----16-16-16-13-13-13-13-13-13-13-13----11-11-11-11-11--------------------|
A|-----14-14-14-11-11-11-11-11-11-11-11-----9--9--9--9--9--------------------|
E|-----14-14-14-14-14-14-14-14-14-14-14-----9--9--9--9--9--------------------|

[Guitar 1]
e|--------11----12-11----------------11--------------------------------------|
B|-----12----12-------12----------12-----------------------------------------|
G|--11-------------------11----11--------------------------------------------|
D|--------------------------14-----------------------------------------------|
A|---------------------------------------------------------------------------|
E|---------------------------------------------------------------------------|

[Guitar 2]
e|---------------------------------------------------------------------------|
B|---------------------------------------------------------------------------|
G|--11-11-11----9--9--9--9--9--9--9--9---------------------------------------|
D|--11-11-11----9--9--9--9--9--9--9--9---------------------------------------|
A|---9--9--9----7--7--7--7--7--7--7--7---------------------------------------|
E|---9--9--9----7--7--7--7--7--7--7--7---------------------------------------|

Verse 1
[Guitar 1]
e|------------------------11----------11----12-11----------------------------|
B|---------12----------12----------12----12-------12-------------------------|
G|------11----11----11----------11-------------------11----------------------|
D|---13----------14----------14-------------------------14-------------------|
A|---------------------------------------------------------------------------|
E|---------------------------------------------------------------------------|
     Brosandi                    Hendumst          hringi

[Guitar 2]
e|---------------------------------------------------------------------------|
B|---------------------------------------------------------------------------|
G|------------------------------------------16-16-16-16-16-------------------|
D|---16-16-16-16-16-16-16-16-16-16-16-16----16-16-16-16-16-------------------|
A|---14-14-14-14-14-14-14-14-14-14-14-14----14-14-14-14-14-------------------|
E|------------------------------------------14-14-14-14-14-------------------|

[Guitar 1]
e|--------11----12-11----------------11----12-11-----------------------------|
B|-----12----12-------12----------12----12-------12--------------------------|
G|--11-------------------11----11-------------------11-----------------------|
D|--------------------------14-------------------------14--------------------|
A|---------------------------------------------------------------------------|
E|---------------------------------------------------------------------------|
     Hldumst     hendur      Allur   heimurinn        skr

[Guitar 2]
e|---------------------------------------------------------------------------|
B|---------------------------------------------------------------------------|
G|--16-16-16----13-13-13-13-13-13-13-13----11-11-11-11-11--------------------|
D|--16-16-16----13-13-13-13-13-13-13-13----11-11-11-11-11--------------------|
A|--14-14-14----11-11-11-11-11-11-11-11-----9--9--9--9--9--------------------|
E|--14-14-14----14-14-14-14-14-14-14-14-----9--9--9--9--9--------------------|

[Guitar 1]
e|--------11----12-11----------------11--------------------------------------|
B|-----12----12-------12----------12-----------------------------------------|
G|--11-------------------11----11--------------------------------------------|
D|--------------------------14-----------------------------------------------|
A|---------------------------------------------------------------------------|
E|---------------------------------------------------------------------------|
        nema           stendur

[Guitar 2]
e|---------------------------------------------------------------------------|
B|---------------------------------------------------------------------------|
G|--11-11-11----9--9--9--9--9--9--9--9---------------------------------------|
D|--11-11-11----9--9--9--9--9--9--9--9---------------------------------------|
A|---9--9--9----7--7--7--7--7--7--7--7---------------------------------------|
E|---9--9--9----7--7--7--7--7--7--7--7---------------------------------------|

Verse 2 [Guitar 1]
e|------------------------11----------11----12-11----------------------------|
B|---------12----------12----------12----12-------12-------------------------|
G|------11----11----11----------11-------------------11----------------------|
D|---13----------14----------14-------------------------14-------------------|
A|---------------------------------------------------------------------------|
E|---------------------------------------------------------------------------|
     Rennblautur

[Guitar 2]
e|---------------------------------------------------------------------------|
B|---------------------------------------------------------------------------|
G|------------------------------------------16-16-16-16-16-------------------|
D|---16-16-16-16-16-16-16-16-16-16-16-16----16-16-16-16-16-------------------|
A|---14-14-14-14-14-14-14-14-14-14-14-14----14-14-14-14-14-------------------|
E|------------------------------------------14-14-14-14-14-------------------|

[Guitar 1]
e|--------11----12-11----------------11----12-11-----------------------------|
B|-----12----12-------12----------12----12-------12--------------------------|
G|--11-------------------11----11-------------------11-----------------------|
D|--------------------------14-------------------------14--------------------|
A|---------------------------------------------------------------------------|
E|---------------------------------------------------------------------------|

[Guitar 2]
e|---------------------------------------------------------------------------|
B|---------------------------------------------------------------------------|
G|--16-16-16----13-13-13-13-13-13-13-13----11-11-11-11-11--------------------|
D|--16-16-16----13-13-13-13-13-13-13-13----11-11-11-11-11--------------------|
A|--14-14-14----11-11-11-11-11-11-11-11-----9--9--9--9--9--------------------|
E|--14-14-14----14-14-14-14-14-14-14-14-----9--9--9--9--9--------------------|

[Guitar 1]
e|--------11----12-11----------------11--------------------------------------|
B|-----12----12-------12----------12-----------------------------------------|
G|--11-------------------11----11--------------------------------------------|
D|--------------------------14-----------------------------------------------|
A|---------------------------------------------------------------------------|
E|---------------------------------------------------------------------------|

[Guitar 2]
e|---------------------------------------------------------------------------|
B|---------------------------------------------------------------------------|
G|--11-11-11----9--9--9--9--9--9--9--9---------------------------------------|
D|--11-11-11----9--9--9--9--9--9--9--9---------------------------------------|
A|---9--9--9----7--7--7--7--7--7--7--7---------------------------------------|
E|---9--9--9----7--7--7--7--7--7--7--7---------------------------------------|

Verse 3
[Guitar 1]
e|------------------------11----------11----12-11----------------------------|
B|---------12----------12----------12----12-------12-------------------------|
G|------11----11----11----------11-------------------11----------------------|
D|---13----------14----------14-------------------------14-------------------|
A|---------------------------------------------------------------------------|
E|---------------------------------------------------------------------------|

[Guitar 2]
e|---------------------------------------------------------------------------|
B|---------------------------------------------------------------------------|
G|------------------------------------------16-16-16-16-16-------------------|
D|---16-16-16-16-16-16-16-16-16-16-16-16----16-16-16-16-16-------------------|
A|---14-14-14-14-14-14-14-14-14-14-14-14----14-14-14-14-14-------------------|
E|------------------------------------------14-14-14-14-14-------------------|

[Guitar 1]
e|--------11----12-11----------------11----12-11-----------------------------|
B|-----12----12-------12----------12----12-------12--------------------------|
G|--11-------------------11----11-------------------11-----------------------|
D|--------------------------14-------------------------14--------------------|
A|---------------------------------------------------------------------------|
E|---------------------------------------------------------------------------|

[Guitar 2]
e|---------------------------------------------------------------------------|
B|---------------------------------------------------------------------------|
G|--16-16-16----13-13-13-13-13-13-13-13----11-11-11-11-11--------------------|
D|--16-16-16----13-13-13-13-13-13-13-13----11-11-11-11-11--------------------|
A|--14-14-14----11-11-11-11-11-11-11-11-----9--9--9--9--9--------------------|
E|--14-14-14----14-14-14-14-14-14-14-14-----9--9--9--9--9--------------------|

[Guitar 1]
e|--------11----12-11----------------11--------------------------------------|
B|-----12----12-------12----------12-----------------------------------------|
G|--11-------------------11----11--------------------------------------------|
D|--------------------------14-----------------------------------------------|
A|---------------------------------------------------------------------------|
E|---------------------------------------------------------------------------|

[Guitar 2]
e|---------------------------------------------------------------------------|
B|---------------------------------------------------------------------------|
G|--11-11-11----9--9--9--9--9--9--9--9---------------------------------------|
D|--11-11-11----9--9--9--9--9--9--9--9---------------------------------------|
A|---9--9--9----7--7--7--7--7--7--7--7---------------------------------------|
E|---9--9--9----7--7--7--7--7--7--7--7---------------------------------------|

Still Working on the rest but I think up to this point is pretty accurate.
Not 100% though, please make suggestions on bits that need changing


e|---------------------------------------------------------------------------|
B|---------------------------------------------------------------------------|
G|---------------------------------------------------------------------------|
D|---------------------------------------------------------------------------|
A|---------------------------------------------------------------------------|
E|---------------------------------------------------------------------------|


| /  slide up
| \  slide down
| h  hammer-on
| p  pull-off
| ~  vibrato
| +  harmonic
| x  Mute note





Comments


Popular We Are Scientists tabs & chords
Altered Beast Bass Tabs
I Don’T Bite Bass Tabs
It's A Hit Bass Tabs
Its A Hit 2 Bass Tabs
Textbook Bass Tabs
Whats The Word Bass Tabs
After Hours Intro Tabs
Can't Lose Tabs
Its A Hit 2 Tabs
This Scene Is Dead 2 Tabs


Song lyrics



↑ Back to top | Tablatures and chords are parodies/interpretations of the original songs. You may use it for private study, scholarship, research or language learning purposes only
© 2014 AZChords.com Contact us | Privacy policy | DMCA | Add/correct tabs | Request tabs | Top 50 tabs