» » »

We Are Scientists, Great Escape Bass tabs (ver.1)

Artists:  A B C D E F G H I J K L M N O P Q R S T U V W X Y Z # 

Great Escape Bass tabs (ver.1)

We Are Scientists Tabs
 Rating:
3.8/5 (5 votes)
Great Escape lessons Tabs too difficult? Try these video lessons and learn fast
                
INTRO + VERSE
G|------------------------------------------------------|
D|------------------------------------------------------|
A|-9-9---77----9-9--77---------9-9--77--9-9-------------|
E|----------------------9--9------------------9-9-9-9---|

CHORUS
G|---------------------------------|
D|---------------------------------|
A|----------4----------------------|
E|-55555555---5-4-2222222-2222222--| [x2]

G|-------------------------------|
D|-------------------------------|
A|-------------------------------|
E|-777777777-99-1010101010101010-| [x2]

BRIDGE
G|---11---9----11---------------11---9----11--------------|
D|--------------------------------------------------------|
A|-9----7----9----7-7---------9----7----9----7-7----------|
E|--------------------9--9-----------------------9-9-9-9--|

G|-----------------------------|
D|-----------------------------|
A|-9999999999999--666666666666-| 
E|-----------------------------| [x2]

G|-----------------------------|
D|-----------------------------|                        
A|-----------------------------|
E|--2222222222--55555555555----|

G|-----------------------------|
D|-----------------------------|                        
A|--99999999999-17171717171717-|
E|-----------------------------| 
            
Submit corrections

comments powered by Disqus
↑ Back to top | We Are Scientists Bass for Great Escape. Lyrics for acoustic guitar and electric guitar. Tablatures and chords are parodies/interpretations of the original songs. You may use it for private study, scholarship, research or language learning purposes only