» » »

We Are Scientists, Dinosaurs Bass tabs (ver.1)

Artists:  A B C D E F G H I J K L M N O P Q R S T U V W X Y Z # 

Dinosaurs Bass tabs (ver.1)

We Are Scientists Tabs
 Rating:
4.5/5 (8 votes)
Dinosaurs lessons Tabs too difficult? Try these video lessons and learn fast
                Go We Are Scientists!!! Great song, enjoy! Pretty much 100% correct I think…
Intro
G|-----------------------------------------------------|
D|-----------------------------------------------------|
A|-----------------------------------------------------|
E|-5-55-5-55-5-55-5-55/17-1717-17-1717-17-1717-17-1717-|
Verse1
G|---------5-------|
D|---7-------5-----|
A|--------------7--|
E|-5----5----------|x9
Verse 2
G|--------------------|
D|--------------------|
A|-88888888--55555555-|
E|--------------------|
Chorus
G|----------------------------------------------|
D|----------------------------------------------|
A|-8-88-8-88-8-88-8-88/12-1212-12-1212-6-66-7-77|
E|----------------------------------------------|
Bridge
G|---------------------------------------------------------|
D|-7777--7777--5555--5555----------------------------------|
A|---------------------------------8888--8888--5555--5555--|
E|---------------------------------------------------------|
End
G|-----------|
D|-----------|
A|-----------|
E|-5---------|
Song order
Intro
Verse 1(x10)
Verse 2
Verse 1 x2)
Verse 2
Verse 1(x2)
Verse 2
Verse 1(x2)
Verse 2
Chorus(x2)
Verse 1(x10)
Verse 2
Verse 1 x2)
Verse 2
Verse 1(x2)
Verse 2
Verse 1(x2)
Verse 2
Chorus(x4)
Bridge(x4)
End
Verse 1(x20)
End
            
Submit corrections

comments powered by Disqus
↑ Back to top | We Are Scientists Bass for Dinosaurs. Lyrics for acoustic guitar and electric guitar. Tablatures and chords are parodies/interpretations of the original songs. You may use it for private study, scholarship, research or language learning purposes only