» » »

We Are Scientists, Cash Cow Tabs (ver.2)

Artists:  A B C D E F G H I J K L M N O P Q R S T U V W X Y Z # 

Cash Cow Tabs (ver.2)

We Are Scientists Tabs
 Rating:
4.7/5 (13 votes)
Cash Cow lessons Tabs too difficult? Try these video lessons and learn fast
                start 

0:01 - 0:13
e|---------------------------------|
b|-8-8--10-10--8-8-10-10-8-8-8-8---|
G|-9-9--9--9---9-9-9--9--9-9-9-9---|
D|---------------------------------|
A|---------------------------------| x 4
E|---------------------------------|

0:14 - 0:25

bass and drums only

0:25 - 0:37

e|-------------------------------------------------------------------------|
b|-------------------------------------------------------------------------|
G|-12-12-11-11-9-9------------12-12-11-11-9-9-------9h11-9h11-9h11-9h11----|
D|-----------------12-12-9~--------------------12-12-----------------------|
A|-------------------------------------------------------------------------|
E|-------------------------------------------------------------------------| x 2

0:37 - 0:49

e|---------------------------------|
b|-8-8--10-10--8-8-10-10-8-8-8-8---|
G|-9-9--9--9---9-9-9--9--9-9-9-9---|
D|---------------------------------|
A|---------------------------------| x 4
E|---------------------------------|

0:49 - 1:01

e|-----------------------------------------------------------|    
b|-----------------------------------------------------------|
G|-9-9---7-7---9-9---7-7---9-9---7-7---9-9---7-7---12-12-----|
D|-----------------------------------------------------------|
A|-7-7---5-5---7-7---5-5---7-7---5-5---7-7---5-5---10-10-----|
E|-----------------------------------------------------------|

e|-----------------------------------------------------------|
b|-----------------------------------------------------------|
G|-9-9---7-7---9-9---7-7--12-12-12-14-11-11-11-11------------|
D|-----------------------------------------------------------|
A|-7-7---5-5---7-7---5-5--10-10-10-12-9--9--9--9-------------|
E|-----------------------------------------------------------|

1:01 - 1:13

e|------------------|
b|-------------8-8--|
G|-9-9-7-7-9-9------|
D|-.-.-.-.-.-.------|
A|------------------|
E|------------------| x 8 

1:13 - 1:25

e|-------------------------------------------------------------------------|
b|-------------------------------------------------------------------------|
G|-12-12-11-11-9-9------------12-12-11-11-9-9-------9h11-9h11-9h11-9h11----|
D|-----------------12-12-9~--------------------12-12-----------------------|
A|-------------------------------------------------------------------------|
E|-------------------------------------------------------------------------| x 2

1:26 - 1:37

e|-----------------------------------------------------------|    
b|-----------------------------------------------------------|
G|-9-9---7-7---9-9---7-7---9-9---7-7---9-9---7-7---12-12-----|
D|-----------------------------------------------------------|
A|-7-7---5-5---7-7---5-5---7-7---5-5---7-7---5-5---10-10-----|
E|-----------------------------------------------------------|

e|-----------------------------------------------------------|
b|-----------------------------------------------------------|
G|-9-9---7-7---9-9---7-7--12-12-12-14-11-11-11-11------------|
D|-----------------------------------------------------------|
A|-7-7---5-5---7-7---5-5--10-10-10-12-9--9--9--9-------------|
E|-----------------------------------------------------------|

1:37 - 1:43

e|--------------------------------------------------|
b|--------------------------------------------------|
G|-9-9-x-x-x-x-9-9-x-x-x-x-9-9-x-x-x-x-9-9-x-x-x-x--|
D|--------------------------------------------------|
A|-7-7-x-x-x-x-7-7-x-x-x-x-7-7-x-x-x-x-7-7-x-x-x-x--| x 2
E|--------------------------------------------------|

1:43 - 1:55

e|--------------------------------------------------|
b|--------------------------------------------------|
G|--------------------------------------------------|
D|----------------------------------------------12--|
A|-------------12-12-14-14-------------12-12-14-----|
E|-12-12-15-15-------------12-12-15-15--------------| x 3


e|--------------------------------------------------|
b|--------------------------------------------------|
G|--------------------------------------------------|
D|-------------------------12-12---12-12---12-------|
A|-------------12-12-14-14--------------------------|
E|-12-12-15-15-------------10-10---10-10---10-------|


1:55 - 2:20

e|-----------------------------------------------------------|    
b|-----------------------------------------------------------|
G|-9-9---7-7---9-9---7-7---9-9---7-7---9-9---7-7---12-12-----|
D|-----------------------------------------------------------|
A|-7-7---5-5---7-7---5-5---7-7---5-5---7-7---5-5---10-10-----|
E|-----------------------------------------------------------|

e|-----------------------------------------------------------|
b|-----------------------------------------------------------|
G|-9-9---7-7---9-9---7-7--12-12-12-14-11-11-11-11------------|
D|-----------------------------------------------------------|
A|-7-7---5-5---7-7---5-5--10-10-10-12-9--9--9--9-------------|
E|-----------------------------------------------------------|

e|-----------------------------------------------------------|    
b|-----------------------------------------------------------|
G|-9-9---7-7---9-9---7-7---9-9---7-7---9-9---7-7---12-12-----|
D|-----------------------------------------------------------|
A|-7-7---5-5---7-7---5-5---7-7---5-5---7-7---5-5---10-10-----|
E|-----------------------------------------------------------|

e|-----------------------------------------------------------|
b|-----------------------------------------------------------|
G|-9-9---7-7---9-9---7-7--12-12-12-14-11-11-11-11------------|
D|-----------------------------------------------------------|
A|-7-7---5-5---7-7---5-5--10-10-10-12-9--9--9--9-------------|
E|-----------------------------------------------------------|

2:20 - 2:35

e|---------------------------------|
b|-8-8--10-10--8-8-10-10-8-8-8-8---|
G|-9-9--9--9---9-9-9--9--9-9-9-9---|
D|---------------------------------|
A|---------------------------------| x 3
E|---------------------------------|

e|---------------------------------|
b|-8-8--10-10--8-8-10-10-8/0-------|
G|-9-9--9--9---9-9-9--9--9/0-------|
D|---------------------------------|
A|---------------------------------|
E|---------------------------------|

end
            
Submit corrections

comments powered by Disqus
↑ Back to top | We Are Scientists Tabs for Cash Cow. Lyrics for acoustic guitar and electric guitar. Tablatures and chords are parodies/interpretations of the original songs. You may use it for private study, scholarship, research or language learning purposes only