» » »

We Are Scientists, Can't Lose Bass tabs (ver.1)

Artists:  A B C D E F G H I J K L M N O P Q R S T U V W X Y Z # 

Can't Lose Bass tabs (ver.1)

We Are Scientists Tabs
Rating:
0/5 (0 votes)
Can't Lose lessons Tabs too difficult? Try these video lessons and learn fast
                I know it's a long tab, but that's because there are always some small changes in the 
line, but learn the song anyway cause it's fun to play and it took me quite a while to 
this damn tab!

Verse
G-----------------------------------------------|
D-----------------------------------------------|
A-9-9-9-9-12-12-12-12---------------------------|
E---------------------10-10-10-10-10-10-10-10-9-|x2

Interlude 1
G-----------------------------------------|
D---------------------9-9-9-9-11-11-11-11-|
A-9-9-9-9-12-12-12-12---------------------|
E-----------------------------------------|

G-------------------------------------------------------------------|
D-------------------11----------------------------12----12----12-11-|
A-9-9-9-9-12--12-12----12-11-12-11----------------------------------|
E----------------------------------10-10-10-10-10----10----10-------|

G-------------------------------------------------------------------|
D-------------------14----12-11----------------12----12--12-11------|
A-9-9-9-9-12--12-12----12-------------------------------------------|
E-------------------------------10-10-10-10-10----10----------------|

Chorus
G-----------------------------------------------------------|
D--------------------------------------------4--------------|
A-55555555-77777777-5555-44-22-77777777-55555-5-4-7777-8888-|
E-----------------------------------------------------------|

Interlude 2
G-----------------|
D-----------------|
A-9-9-9-9-9-9-9-7-|
E-----------------|

Verse
G----------------------------------------------------------------------|
D----------------------------------------------------------------------|
A-9-9-9-9-9-11-12-9-11-12-11-12-------------------11-12-11----11-12-11-|
E-------------------------------12-10-10-10-10-10----------10----------|x2

Chorus
G-----------------------------------------------------------|
D--------------------------------------------4--------------|
A-55555555-77777777-5555-44-22-77777777-55555-5-4-7777-8888-|
E-----------------------------------------------------------|

Interlude 3
G------------------------------------------------|
D---------------9999-11111111--------------------|
A-9999-12121212---------------5555-7777-44444444-|
E------------------------------------------------|

Just guitar bass comes in with voice
G--------------------------------------------------------|
D-7-7-7-7-7-7-7--9-9-9-9-------------------------9-9-9-9-|
A---------------------------------9-9-9-9-9-9-9----------|
E--------------------------------------------------------|

Chorus
G-----------------------------------------------------|
D-----------------------------------------------------|
A-55555555-77-99-1111-1212-5555-44-22-77-99-1111-1212-|
E-----------------------------------------------------|

G------------------------------------------|
D------4-----------------------------------|
A-55555-5-4-77----8888--9-9-9-9-7-7-7--9-7-|
E--------------99--------------------------|

Chorus
G---------------------------------------------------------------------------|
D---------------------------------4-----------------------------------------|
A-5555-44-22-77-99-1111-1212-55555-5-4-77-99-1111-1212-55555454-77-44-77-88-|
E---------------------------------------------------------------------------|

Outro
G----------------------------------------------------------|
D---------------9999-11111111------------------------------|
A-9999-12121212--------------------------------------------|
E-----------------------------10101010-12121212-9999-77-55-|

Enjoy!
            

comments powered by Disqus
↑ Back to top | We Are Scientists Bass for Can't Lose. Lyrics for acoustic guitar and electric guitar. Tablatures and chords are parodies/interpretations of the original songs. You may use it for private study, scholarship, research or language learning purposes only