» » »

Callback Bass tabs (ver.1)

Artists:  A B C D E F G H I J K L M N O P Q R S T U V W X Y Z # 

Callback Bass tabs (ver.1)

We Are Scientists
Rating:
5/5 (1 vote)

Tabs too difficult? Try these video lessons and learn fast.
                0:11
G----------------------|
D----------------------|
A--003----0-03---------| x4
E------3-0-----3-0-----|

0:22
G------------------------------------------------------|
D------------------------------------------------------|
A------------------3333333333333333--------------------|
E--3333333333333333----------------3333333333333333----|

G------------------------------------------------------|
D------------------------------------------------------|
A--3333333311110000----333322223333----66665555--------| x1
E------------------1111------------4444--------6666----|

0:39
G----------------------|
D----------------------|
A--003----0-03---------| x6
E------3-0-----3-0-----|

0:56
G------------------------------------------------------|
D------------------------------------------------------|
A------------------3333333333333333--------------------|
E--3333333333333333----------------3333333333333333----|

G------------------------------------------------------|
D------------------------------------------------------|
A--3333333311110000----333322223333----66665555--------| x1
E------------------1111------------4444--------6666----|

1:12
G----------------------|
D----------22--22------|
A--00--00--------------| x1
E----------------------|

1:16
G----------------------|
D----------------------|
A--003----0-03---------| x4
E------3-0-----3-0-----|

1:27
G------------------------------------------------------|
D------------------------------------------------------|
A------------------3333333333333333--------------------|
E--3333333333333333----------------3333333333333333----|

G------------------------------------------------------|
D------------------------------------------------------|
A--3333333311110000----333322223333----66665555--------| x1
E------------------1111------------4444--------6666----|

1:44
G--------------------------------------|
D--------------------------------------|
A--------------------------------------| x2
E--33333332222222221111111444444444----|

G-------------------------------------|
D-------------------------------------|
A-------------------------------------| x1
E--333333322222222211111114-4-4-4-----|
            
Tabs too difficult? Try these video lessons and learn fast.


comments powered by Disqus
↑ Back to top | Tablatures and chords are parodies/interpretations of the original songs. You may use it for private study, scholarship, research or language learning purposes only