» » »

Ambition Tabs (ver.1)

Artists:  A B C D E F G H I J K L M N O P Q R S T U V W X Y Z # 

Ambition Tabs (ver.1)

We Are Scientists
Rating:
5/5 (1 vote)

Hard to play? Try these video lessons and learn fast.
                -----------------------------------------------------------------------------
-----------------------------------------------------------------------------

Tuning: Standard (eBGDAE)




Intro riff / Chorus :


e|-----13--------------------------|
B|--------13--15----13--------13---|
G|---------------14----12--14------|
D|---------------------------------| x2
A|---------------------------------|
E|---------------------------------|



Verse

e|-------------5------------------|
B|-----6----------6~~-------------|
G|--------7~~---------------------|
D|--------------------------------|
A|--------------------------------|
E|--------------------------------|

Then verses end with :

e|-----------5------------------5--|
B|----6---------6------6-----------|
G|-------7----------------7--------|
D|---------------------------------|
A|---------------------------------|
E|---------------------------------|


After the chorus towards 2:00 a kind of bridge occurs :



e|-----------------------|
B|-----------------------|
G|---5-5-5-5-5-5-5-5-----|
D|---6-6-6-6-6-6-6-6-----|
A|---6-6-6-6-6-6-6-6-----|
E|---4-4-4-4-4-4-4-4-----|


e|-----------------------------------|
B|-----------------------------------|
G|---4-4-4-4-4-4-4-4-7-7-7-7-7-7-7-7-|
D|---5-5-5-5-5-5-5-5-8-8-8-8-8-8-8-8-| x2
A|---5-5-5-5-5-5-5-5-8-8-8-8-8-8-8-8-|
E|---3-3-3-3-3-3-3-3-6-6-6-6-6-6-6-6-|


e|---------------------------|
B|---------------------------|
G|---4-4-x-x-x-x-7-7-x-x-x-x-| 
D|---5-5-x-x-x-x-8-8-x-x-x-x-| x2
A|---5-5-x-x-x-x-8-8-x-x-x-x-|
E|---3-3-x-x-x-x-6-6-x-x-x-x-|


e|-----------5------------------5--|
B|----6---------6------6-----------|
G|-------7----------------7--------|
D|---------------------------------|
A|---------------------------------|
E|---------------------------------|

The song ends with a A#. 


************************************

| /   slide up
| \   slide down
| h   hammer-on
| p   pull-off
| ~   vibrato
| +   harmonic
| x   Mute note
| b   Bend
| pb  Pre-bend
| br  Bend release
| pbr Pre-bend release
| brb Bend release bend

************************************
            
Hard to play? Try these video lessons and learn fast. | Correct




comments powered by Disqus
↑ Back to top | Tablatures and chords are parodies/interpretations of the original songs. You may use it for private study, scholarship, research or language learning purposes only