» » »

We Are Scientists, Altered Beast Bass tabs (ver.1)

Artists:  A B C D E F G H I J K L M N O P Q R S T U V W X Y Z # 

Altered Beast Bass tabs (ver.1)

We Are Scientists Tabs
 Rating:
4.3/5 (6 votes)
Altered Beast lessons Tabs too difficult? Try these video lessons and learn fast
1
                ----------------------------------------------------------------------------
----------------------------------------------------------------------------



Tuning: Standard

Worked this out when messing about on the bass.
Didnt spend long on it because it seemed pretty simple, but i think its ok!

Intro / Verses

G|--------------------------------------------------------------------------|
D|------7--7-7-7-7-----9--9-9-9-9-------------------------------------------|
A|--5-7------------5-7------------5-7-5--5-5-5-5-5-7-5--5-5-5-5-------------|
E|--------------------------------------------------------------------------|

Chorus

G|--------------------------------------------------------------------------|
D|--------------------------------------------------------------------------|
A|--10-10-10-10-10-10-10-10-9-9-9-9-9-9-9-9-///12-12-12-12-12-12-12-12------|
E|--------------------------------------------------------------------------|

G|--------------------------------------------------------------------------|
D|--------------------------------------------------------------------------|
A|--12-12-12-12-12-12-12-12-------------------------------------------------|
E|--------------------------------------------------------------------------|

Break   'Theres nothing wrong with asking...'

G|---5-5-5-5--7-7-7-7--2-2-2-2-------------|              |-----------------|
D|------------------------------5-5-5-5----|              |-----------------|
A|--3-3-3-3--5-5-5-5--0-0-0-0--------------| X 2  then... |-----------------|
E|-----------------------------3-3-3-3-----|              |-1-1-1-1-ect-----|


Easy peasy. Comment if you think of any corrections.


| /  slide up
| \  slide down
| h  hammer-on
| p  pull-off
| ~  vibrato
| +  harmonic
| x  Mute note
=============================================================================
            
Submit corrections

comments powered by Disqus
↑ Back to top | We Are Scientists Bass for Altered Beast. Lyrics for acoustic guitar and electric guitar. 1 Tablatures and chords are parodies/interpretations of the original songs. You may use it for private study, scholarship, research or language learning purposes only