» » »

We Are Scientists, After Hours Bass tabs (ver.1)

Artists:  A B C D E F G H I J K L M N O P Q R S T U V W X Y Z # 

After Hours Bass tabs (ver.1)

We Are Scientists Tabs
Rating:
5/5 (4 votes)
After Hours lessons Tabs too difficult? Try these video lessons and learn fast
                We Are Scientists
Brain Thrust Mastery
Done by ear so forgive me for any mistakes, very easy song though, go play! :)

Note= for you lazy bassists out there, play the A string open instead of 5th on the E string.
Wait one line after guitar comes in. Then…
G|----------------------------|
D|-222--222--222--222---------|
A|----------------------------|
E|----------------------------| x4

G|------------------------------------------------------|
D|-2-----------------------------22-222-222-222---------|
A|-----------22--2-44--4--------------------------------|
E|----55--5----------------55--5------------------------|

G|----------------------------|
D|-222--222--222--222---------|
A|----------------------------|
E|----------------------------|x2

G|------------------------------------------------------|
D|-2-----------------------------22-222-222-222---------|
A|-----------22--2-44--4--------------------------------|
E|----55--5----------------55--5------------------------|

G|------------------------------------------------------|
D|-2--------------------------22--222--222--222---------|
A|----44-444-4-22-222-2---------------------------------|
E|------------------------------------------------------|x2

G|----------------------------------------------------|-------------------------------------------|
D|-2--------------------------22--222--2----------|-----------------------------22-222-2----------|
A|----44-444-4-22-222-2-------------------------|---------22-2-44-4-------------------------------|
E|--------------------------------------------55-555|-555-5--------------55-5-------------55-555--|

G----------------------------------------------------|
D-----------------------------22-222-222-222---------|
A---------22-2-44-4----------------------------------|
E|-555-5--------------55-5---------------------------|

G|----------------------------|
D|-222--222--222--222---------|
A|----------------------------|
E|----------------------------|

G|------------------------------------------------------|
D|-2-----------------------------22-222-222-222---------|
A|-----------22--2-44--4--------------------------------|
E|----55--5----------------55-5-------------------------|

G|----------------------------|
D|-222--222--222--222---------|
A|----------------------------|
E|----------------------------|x2

G|------------------------------------------------------|
D|-2-----------------------------22-222-222-222---------|
A|-----------22--2-44-4---------------------------------|
E|----55--5----------------55-5-------------------------|

G|----------------------------|
D|-222--222--222--222---------|
A|----------------------------|
E|----------------------------|x2

G|------------------------------------------------------|
D|-2-----------------------------22-222-222-222---------|
A|-----------22--2-44-4---------------------------------|
E|----55--5----------------55-5-------------------------|


G|------------------------------------------------------|
D|-2--------------------------22--222--222--222---------|
A|----44-444-4-22-222-2---------------------------------|
E|------------------------------------------------------|x2

G|------------------------------------------------------|
D|-2--------------------------22--222--2----------------|
A|----44-444-4-22-222-2---------------------------------|
E|--------------------------------------------55-555----|

G|-------------------------------------------------------|
D|---------------------------------22-222-2--------------|
A|----------22--2-44--4----------------------------------|
E|-555--5----------------55--5-------------55-555--------|x2


G----------------------------------------------------|
D-----------------------------22-222-222-222---------|
A---------22-2-44-4----------------------------------|
E|-555-5--------------55-5---------------------------|

G|----------------------------|
D|-222--222--222--222---------|
A|----------------------------|
E|----------------------------|x3

G|----------------------|
D|----------------------|
A|----------------------|
E|-5--------2-----------|

G---------------------|
D---------------------|
A---------------------|
E-5---2---5---2-------|

Miss a bar then back to verse.
G|----------------------------|
D|-222--222--222--222---------|
A|----------------------------|
E|----------------------------|x2

G|------------------------------------------------------|
D|-2-----------------------------22-222-2---------------|
A|-----------22--2-44--4--------------------------------|
E|----55--5----------------55--5----------55-555--------|

G----------------------------------------------------|
D-----------------------------22-222-222-222---------|
A---------22-2-44-4----------------------------------|
E|-555-5--------------55-5---------------------------|

G|------------------------------------------------------|
D|-2--------------------------22--222--222--222---------|
A|----44-444-4-22-222-2---------------------------------|
E|------------------------------------------------------|x2

G|----------------------------------------------------|-------------------------------------------|
D|-2--------------------------22--222--2----------|-----------------------------22-222-2----------|
A|----44-444-4-22-222-2-------------------------|---------22-2-44-4-------------------------------|
E|--------------------------------------------55-555|-555-5--------------55-5-------------55-555--|

G--------------------------------------------------|-----------------------------------------|
D-----------------------------22-222-2----------|----------------------------22-222-222-222--|
A---------22-2-44-4-----------------------------|---------22-2-44-4--------------------------|
E|-555-5--------------55-5-------------55-555-|-555-5--------------55-5----------------------|x2

G|----------------------------|
D|-222--222--222--222---------|
A|----------------------------|
E|----------------------------|x3

End on D|-2-|
            
Submit corrections

comments powered by Disqus
↑ Back to top | We Are Scientists Bass for After Hours. Lyrics for acoustic guitar and electric guitar. Tablatures and chords are parodies/interpretations of the original songs. You may use it for private study, scholarship, research or language learning purposes only