» » »

After Hours Tabs (ver.1)

Artists:  A B C D E F G H I J K L M N O P Q R S T U V W X Y Z # 

After Hours Tabs (ver.1)

We Are Scientists
Rating:
5/5 (25 votes)

Hard to play? Try these video lessons and learn fast.
                The Main Riff is played over the verse and the
Chorus riff over the Chorus strangely enough...


ORDER
-----

INTRO
VERSE
CHORUS
VERSE
CHORUS
INTERLUDE
VERSE
CHORUS

-----------------------------------------------------------
Intro [Guitar 2]

E|--0--
B|--0--
G|--9--   X32
D|--9--
A|--7--
E|--0--

-----------------------------------------------------------
The Main Riff: Played over the verse chords

[Guitar 1]

E|--0--0--5--0--7--0--0--0--4--0--0--2--0--0--0--0--|
B|--------------------------------------------------|
G|--------------------------------------------------|
D|--------------------------------------------------|
A|--------------------------------------------------|
E|--------------------------------------------------|

Verse Chords

[Guitar 2]

This Door is always open...

E|--0--------0-------0-------0-------0-------0--------|
B|--0--------0-------0-------0-------0-------0--------|
G|--9---X32--9---X4--9---X4--9---X4--9---X4--9---X16--|      X2
D|--9--------9-------9-------9-------9-------9--------|
A|--7--------0-------x-------x-------0-------7--------|
E|--0--------x-------7-------9-------x-------0--------|


-----------------------------------------------------------

Chorus Riff

[Guitar 1]

E|------------------------------------------------------|
B|--9-----9-----9-----9-----12-----12-----12-----12-----|
G|-----9-----9-----9-----9------9------9------9------9--|
D|------------------------------------------------------|
A|------------------------------------------------------|
E|------------------------------------------------------|

E|------------------------------------------------------|
B|--9-----9-----12-----12-----10-----10-----9-----9-----|
G|-----9-----9------9------9------9------9-----9-----9--|
D|------------------------------------------------------|
A|------------------------------------------------------|
E|------------------------------------------------------|

Chorus Chords

[Guitar 2]

This night is winding down but...

E|--0-------0-------0---------|
B|--5-------0-------0---------|
G|--6---X8--4---X8--9---x16---|  X3
D|--6-------4-------9---------|
A|--4-------2-------7---------|
E|------------------0---------|

Say, that you'll stay...

E|--0-------0-------0-------0-------0-------0-------|
B|--0-------0-------0-------0-------0-------0-------|
G|--9---X4--9---X4--9---X4--9---X4--9---X8--9---x8--|  X2
D|--9-------9-------9-------9-------9-------9-------|
A|--0-------x-------x-------0-------7-------0-------|
E|--x-------7-------9-------x-------0-------x-------|

-----------------------------------------------------------

Interlude Chords

We're all right where we're supposed to be...

E|--0------2------|
B|--0------2------|
G|--6------2------|
D|--7------4------|
A|--7------4------|
E|--5------2------|


Time means nothing, Time means nothing...

E|--0------2------0------2------0-------|
B|--0------2------0------2------0-------|
G|--6------2------6------2------9-------|
D|--7--X8--4--x8--7--X8--4--x8--9--x32--|
A|--7------4------7------4------7-------|
E|--5------2------5------2------0-------|

-----------------------------------------------------------
This version of the song can be heard here:


Danny Silson x
            
Hard to play? Try these video lessons and learn fast. | Correct




comments powered by Disqus
↑ Back to top | Tablatures and chords are parodies/interpretations of the original songs. You may use it for private study, scholarship, research or language learning purposes only