» » »

Time's Arrow Tabs (ver.1)

Artists:  A B C D E F G H I J K L M N O P Q R S T U V W X Y Z # 

Time's Arrow Tabs (ver.1)

Weakerthans
Rating:
0/5 (0 votes)

Hard to play? Try these video lessons and learn fast.
                Time's Arrow by the Weakerthans - Reconstruction Site

BTW this is the first tab that I've ever submitted so you can


INTRO


    F                        C

E--------8--------------------------------------------------------|
B-----10---10-10/1110-8-------------10-(8)---------10p8-----------|
G------------------------10--9--------------9------------10p9-----|
D------------------------------10-------------10------------------|
A---8----------------------------10-(10)--------10-(10)--(10)-----|
E----------------------------8--------------8---------------------|

                           This is the only tricky part, play the
                           C barred at 8 and move your pinky to
                           hit the high notes.


    D                     A#/Bb     F

E-----------------------------------------------------------------|
B----------6--6-----------6-6--------------1-----5/65-3-5-(6)-----|
G-------7--7--7-----------7-7--------------2----------------------|
D-----7----------------8----------------3-------------------------|
A---5----------------8----------------3---------------------------|
E------------------6----------------1-----------------------------|


Verse

F                                           Am

So you watch the sunrise sinking, and she's talking in her sleep.

Dm             C             A#/Bb

A dream of how alone she was tommorrow when you keep

F                                  Am

all those promises to someone in a mirror you will find


Dm                        C               A#/Bb

at your parents' house in nineteen eighty nine.

Chorus

A#/Bb         C              Am                          A#/Bb


t-e-r-r-o-r   i-z-e-d by the ruling party: calenders and commas.

A#/Bb         C                       Am                 A#/B

S-m-a-l-l     r-e-q-u-e-s-t, could we please turn around?

So you whisper your arrival walking backwards to the door.
Wonder briefly what it is you're hesitating for.
All the streets lie down, deserted in the darkest part of night,
to lead you through the evening to the light.

Pulled along in thender grip of watched and ellipses.
Small request. Could we please turn around?

Outro

Play the intro twice but lay a C at the end of the second run.

Then

F,A#,Dm,/Dm,/C   <---I know its a bad explanation, but you'll
understand when you listen to the song

Ending

E------8----(13)----------------------------------------------------|
B---10---10-13------------------------------------------------------|
G-------------------------------------------------------------------|
D-------------------------------------------------------------------|
A-------------------------------------------------------------------|
E-8-----------------------------------------------------------------|

This tab is entirely the authors work.
            
Hard to play? Try these video lessons and learn fast. | Correct




comments powered by Disqus
↑ Back to top | Tablatures and chords are parodies/interpretations of the original songs. You may use it for private study, scholarship, research or language learning purposes only