» » »

None Of The Above Tabs (ver.1)

Artists:  A B C D E F G H I J K L M N O P Q R S T U V W X Y Z # 

None Of The Above Tabs (ver.1)

Weakerthans
Rating:
5/5 (1 vote)

Hard to play? Try these video lessons and learn fast.
                Standard Tuning

Verse
E------------------------------------------------------------------|
B------------------------------------------------------------------|
G------7-----7------------7------7-----------7-----7---------------|
D----8-----8-----8-----10-----10-----10----8-----8-----8-----------|
A--------------------8------8------8-----6-----6-----6-------------|
E--6-----6-----6---------------------------------------------------|

Chorus
E-------------------------------------------------------------------|
B-------------------------------------------------------------------|
G-------8------8--------------7-------7-------------10------10------|
D----10-----10-----10------10------10------10----10------10------10-|
A-----------------------10------10------10-----8-------8-------8----|
E--8------8------8--------------------------------------------------|
__ __
|1. |2
E--|-------------------------|--------------------------------------|
B--|-------------------------|--------------------------------------|
G--|--------10------10-------|--------8------8----------------------|
D--|-----10------10----------|-----10-----10-----10-----------------|
A--|---6-------6-------6-----|---8------8------8--------------------|
E--|-------------------------|--------------------------------------|

Post Chorus
E-----------------------------------------------------------------|
B-----------------------------------------------------------------|
G---7(10)---7-(10)--8(10)-----------------------------------------|
D---8-------10------8---------------------------------------------|
A-----------8-------6---------------------------------------------|
E---6-------------------------------------------------------------|

Guitar Solo:
E-----------------------------------------------------------------|
B---------------8-8~------3--------10--------8----8---------------|
G--------/10----------------3---------10--------------------------|
D-/8--/8-----/8--------/3-------/7--------8-----8-----------------|
A-----------------------------------------------------------------|
E-----------------------------------------------------------------|


Outro

Guitar1 picks this chord:
slide guitar plays:
E-----------------------------------------------------------------|
B-----------------------------8---8----8----10---11~--------------|
G---7-------------------------------------------------------------|
D---8-------------------------------------------------------------|
A-----------------------------------------------------------------|
E---6-------------------------------------------------------------|
            
Hard to play? Try these video lessons and learn fast. | Correct




comments powered by Disqus
↑ Back to top | Tablatures and chords are parodies/interpretations of the original songs. You may use it for private study, scholarship, research or language learning purposes only