» » »

Weakerthans, Fallow Tabs (ver.2)

Artists:  A B C D E F G H I J K L M N O P Q R S T U V W X Y Z # 

Fallow Tabs (ver.2)

Weakerthans Tabs
Rating:
0/5 (0 votes)
Fallow lessons Tabs too difficult? Try these video lessons and learn fast
                I've seen John play this live both solo and with the band, and it seems to be in open D
every time..
the other version of the tab is excellent when in standard tuning, but here's my take on it.

words and timing are referencing this video:

tuning from low to high is:

d
a
F#
D
A
D

are kind of all over the place.  I apologize for that...I had everything lined up 
perfectly timing-wise.  the tab is still correct at least)


|----------------|----------------|
|0-----0-----0---|0-----0-----0---|
|--0-----0-----0-|--0-----0-----0-|
|----0-----0-----|----0-----0-----|
|----------------|----------------|
|0---------------|0---------------|

|----------------|----------------|----------------|----------------|----------------|
|9-----9-----7---|5-----5-----5---|5-----4-----0---|2-----2-----2---|4-----4-----4---|
|--0-----0-----0-|--0-----0-----0-|--0-----0-----0-|--3-----3-----3-|--5-----5-----5-|
|----0-----0-----|----0-----0-----|----0-----0-----|----0-----0-----|----0-----0-----|
|----------------|----------------|----------------|----------------|----------------|
|0---------------|0---------------|4---------------|5---------------|7---------------|

|----------------|----------------|----------------|
|2-----2-----2---|0-----0h2---0---|0-----0-----0---|
|--3-----3-----3-|--0-----0-----0-|--0-----0-----0-|
|----0-----0-----|----0-----0-----|----2-----2-----|
|----------------|----------------|0---------------|
|5---------------|0---------------|----------------|

 Wait 'till  the day    says  it's closing                       and pub - lic is
put   a    -   way


|----------------|----------------|----------------|----------------|----------------|
|9-----9-----7---|5-----5-----5---|5-----4-----0---|2-----2-----2---|4-----4-----4---|
|--0-----0-----0-|--0-----0-----0-|--0-----0-----0-|--3-----3-----3-|--5-----5-----5-|
|----0-----0-----|----0-----0-----|----0-----0-----|----0-----0-----|----0-----0-----|
|----------------|----------------|----------------|----------------|----------------|
|0---------------|0---------------|4---------------|5---------------|7---------------|

|----------------|----------------|----------------|
|2-----2-----2---|0-----0h2---0---|0-----0-----0---|
|--3-----3-----3-|--0-----0-----0-|--0-----0-----0-|
|----0-----0-----|----0-----0-----|----2-----2-----|
|----------------|----------------|0---------------|
|5---------------|0---------------|----------------|
 Write by    the light  of    a   payphone                      your list  of  I
meant to say                                    Like


|----------------|----------------|----------------|----------------|----------------|
|9-----9-----9---|7-----7-----7---|5-----5-----5---|5-----5-----7---|9-----9-----9---|
|--0-----0-----0-|--0-----0-----0-|--0-----0-----0-|--0-----0-----0-|--0-----0-----0-|
|----0-----0-----|----0-----0-----|----0-----0-----|----0-----0-----|----0-----0-----|
|----------------|----------------|----------------|----------------|----------------|
|9---------------|7---------------|5---------------|5---------(/7)--|9---------------|

|----------------|----------------|----------------|----------------|
|7-----7-----7---|5-----5-----5---|0-----0-----0---|0-----0-----0---|
|--0-----0-----0-|--0-----0-----0-|--0-----0-----0-|--0-----0-----0-|
|----0-----0-----|----0-----0-----|----2-----2-----|----5-----4-(\2)|
|----------------|----------------|0---------------|0---------------|
|7---------------|5---------------|----------------|----------------|

 win  -  ter      comes   too      soon                           or ra  -  di   -    a
-  tor - s    hum   out of    tune                             Out


|----------------|----------------|----------------|----------------|
|2-----2-----2---|0-----0-----0---|4-----4-----4---|2-----2-----2---|
|--3-----3-----3-|--0-----0-----0-|--5-----5-----5-|--3-----3-----3-|
|----0-----0-----|----0-----0-----|----0-----0-----|----0-----0-----|
|----------------|----------------|----------------|----------------|
|5---------------|0---------------|7---------------|5---------------|

|----------------|----------------|---------------|----------------|
|2-----2-----2---|0-----0-----0---|4-----4----4---|2-----2-----2---|
|--3-----3-----3-|--0-----0-----0-|--5-----5----5-|--3-----3-----3-|
|----0-----0-----|----0-----0-----|----0-----0----|----0-----0-----|
|----------------|----------------|---------------|----------------|
|5---------------|0---------------|7--------------|5---------------|
 under the    disraeli          with     train      ties          We'll    streets
sidewalks,    a  city  for small lives         And
                                   rusty     track                   carve       and
                                                                       new
|----------------|----------------|----------------|----------------|
|2-----2-----2---|0-----0-----0---|0h5---5-----5---|5-----5-----5---|
|--3-----3-----3-|--7-----7-----7-|--0-----0-----0-|--0-----0-----0-|
|----0-----0-----|----5-----5-----|----0-----0-----|----0-----0-----|
|----------------|0---------------|----------------|----------------|
|5---------------|----------------|0---------------|0---------------|
 say   that       stay  one more   year
           we'll      for

|----------------|----------------|----------------|----------------|
|9-----9-----7---|5-----5-----5---|5-----4-----0---|2-----2-----2---|
|--0-----0-----0-|--0-----0-----0-|--0-----0-----0-|--3-----3-----3-|
|----0-----0-----|----0-----0-----|----0-----0-----|----0-----0-----|
|----------------|----------------|----------------|----------------|
|0---------------|0---------------|4---------------|5---------------|

|----------------|----------------|----------------|----------------|
|4-----4-----4---|2-----2-----2---|0-----0h2---0---|0-----0-----0---|
|--5-----5-----5-|--3-----3-----3-|--0-----0-----0-|--0-----0-----0-|
|----0-----0-----|----0-----0-----|----0-----0-----|----2-----2-----|
|----------------|----------------|----------------|0---------------|
|7---------------|5---------------|0---------------|----------------|
 Wait  near  the end    of    Sep-tember                             wait  for some
stars to

     show

|----------------|----------------|----------------|----------------|
|9-----9-----7---|5-----5-----5---|5-----4-----0---|2-----2-----2---|
|--0-----0-----0-|--0-----0-----0-|--0-----0-----0-|--3-----3-----3-|
|----0-----0-----|----0-----0-----|----0-----0-----|----0-----0-----|
|----------------|----------------|----------------|----------------|
|0---------------|0---------------|4---------------|5---------------|

|----------------|----------------|----------------|----------------|
|4-----4-----4---|2-----2-----2---|0-----0h2---0---|0-----0-----0---|
|--5-----5-----5-|--3-----3-----3-|--0-----0-----0-|--0-----0-----0-|
|----0-----0-----|----0-----0-----|----0-----0-----|----2-----2-----|
|----------------|----------------|----------------|0---------------|
|7---------------|5---------------|0---------------|----------------|

 Try   so    hard not    to    re-member                          what     empty
play -grounds                                   That
                                                                     all
         know

|----------------|----------------|----------------|----------------|----------------|
|9-----9-----9---|7-----7-----7---|5-----5-----5---|5-----5-----7---|9-----9-----9---|
|--0-----0-----0-|--0-----0-----0-|--0-----0-----0-|--0-----0-----0-|--0-----0-----0-|
|----0-----0-----|----0-----0-----|----0-----0-----|----0-----0-----|----0-----0-----|
|----------------|----------------|----------------|----------------|----------------|
|9---------------|7---------------|5---------------|5---------(/7)--|9---------------|

|----------------|----------------|----------------|----------------|
|7-----7-----7---|5-----5-----5---|0-----0-----0---|0-----0-----0---|
|--0-----0-----0-|--0-----0-----0-|--0-----0-----0-|--0-----0-----0-|
|----0-----0-----|----0-----0-----|----2-----2-----|----5-----4-(\2)|
|----------------|----------------|0---------------|0---------------|
|7---------------|5---------------|----------------|----------------|

 sym  -  pa   -   thy    is        cruel                           reluc  -  tant
jes - ter or     sim - pering     fool


|----------------|----------------|----------------|----------------|
|2-----2-----2---|0-----0-----0---|4-----4-----4---|2-----2-----2---|
|--3-----3-----3-|--0-----0-----0-|--5-----5-----5-|--3-----3-----3-|
|----0-----0-----|----0-----0-----|----0-----0-----|----0-----0-----|
|----------------|----------------|----------------|----------------|
|5---------------|0---------------|7---------------|5---------------|

|----------------|----------------|---------------|----------------|
|2-----2-----2---|0-----0-----0---|4-----4----4---|2-----2-----2---|
|--3-----3-----3-|--0-----0-----0-|--5-----5----5-|--3-----3-----3-|
|----0-----0-----|----0-----0-----|----0-----0----|----0-----0-----|
|----------------|----------------|---------------|----------------|
|5---------------|0---------------|7--------------|5---------------|

 six         the highway        our      stung      wheat         We'll    hole  and
bury           what     not  de-feat            And
   feet                            bare      with                    dig
              we
       off                           legs                                a
                could
|----------------|----------------|----------------|----------------|
|2-----2-----2---|0-----0-----0---|0h5---5-----5---|5-----5-----5---|
|--3-----3-----3-|--7-----7-----7-|--0-----0-----0-|--0-----0-----0-|
|----0-----0-----|----5-----5-----|----0-----0-----|----0-----0-----|
|----------------|0---------------|----------------|----------------|
|5---------------|----------------|0---------------|0---------------|
 say   that       stay  one more   year
           we'll      for

|----------------|----------------|----------------|----------------|
|2-----2-----2---|0-----0-----0---|4-----4-----4---|2-----2-----2---|
|--3-----3-----3-|--0-----0-----0-|--5-----5-----5-|--3-----3-----3-|
|----0-----0-----|----0-----0-----|----0-----0-----|----0-----0-----|
|----------------|----------------|----------------|----------------|
|5---------------|0---------------|7---------------|5---------------|

|----------------|----------------|---------------|----------------|
|2-----2-----2---|0-----0-----0---|0h5---5----5---|5-----5-----5---|
|--3-----3-----3-|--7-----7-----7-|--0-----0----0-|--0-----0-----0-|
|----0-----0-----|----5-----5-----|----0-----0----|----0-----0-----|
|----------------|0---------------|---------------|----------------|
|5---------------|----------------|0--------------|0---------------|
 Bend  tie   a   shoelace       or bend            fear           and      that
stay  one more   year
   to                                  a-gainst                      say       you'll
 for
                                             your
|----------------|----------------|----------------|----------------|
|9-----9-----7---|5-----5-----5---|5-----4-----0---|2-----2-----2---|
|--0-----0-----0-|--0-----0-----0-|--0-----0-----0-|--3-----3-----3-|
|----0-----0-----|----0-----0-----|----0-----0-----|----0-----0-----|
|----------------|----------------|----------------|----------------|
|0---------------|0---------------|4---------------|5---------------|

|----------------|----------------|----------------|----------------|
|4-----4-----4---|2-----2-----0---|0-----0h2---0---|0-----0-----0---|
|--5-----5-----5-|--3-----3-----3-|--0-----0-----0-|--0-----0-----0-|
|----0-----0-----|----0-----0-----|----0-----0-----|----2-----2-----|
|----------------|----------------|----------------|0---------------|
|7---------------|5---------------|0---------------|----------------|



                                    With
|----------------|----------------|----------------|----------------|
|0-----0-----0---|0-----0-----0---|0-----0-----0---|0-----0-----0---|
|--0-----0-----0-|--0-----0-----0-|--0-----0-----0-|--0-----0-----0-|
|----0-----0-----|----0-----0-----|----0-----0-----|----0-----0-----|
|2---------------|0---------------|----------------|----------------|
|----------------|----------------|5---------------|5---------------|

|----------------|----------------|----------------|----------------|
|0-----0-----0---|0-----0-----0---|0-----0-----0---|0-----0-----0---|
|--0-----0-----0-|--0-----0-----0-|--0-----0-----0-|--0-----0-----0-|
|----0-----0-----|----0-----0-----|----0-----0-----|----0-----0-----|
|2---------------|0---------------|----------------|----------------|
|----------------|----------------|5---------------|5---------------|

 so    much       left  to         seek                          the lease   runs
out   next       week

|----------------|----------------|
|0-----0-----0---|0-----0-----0---|
|--0-----0-----0-|--0-----0-----0-|
|----0-----0-----|----0-----0-----|
|----------------|----------------|
|----------------|----------------|



|----------------|----------------|----------------|----------------|
|12----12----10--|9-----9-----9h10|12----12----10--|9-----9-----9h10|
|--0-----0-----0-|--0-----0-------|--0-----0-----0-|--0-----0-------|
|----0-----0-----|----0-----0-----|----0-----0-----|----0-----0-----|
|----------------|----------------|0---------------|0---------------|
|0---------------|0---------------|----------------|----------------|

|----------------|----------------|----------------|----------------|
|10----9-----7---|10----9-----7---|5-----5-----5---|5-----5----/7---|
|--0-----0-----0-|--0-----0-----0-|--0-----0-----0-|--0-----0-----0-|
|----0-----0-----|----0-----0-----|----0-----0-----|----0-----0-----|
|----------------|----------------|----------------|----------------|
|9---------------|7---------------|5---------------|5---------------|



|----------------|----------------|----------------|----------------|
|12----12----10--|9-----9-----9h10|12----12----10--|9-----9-----9h10|
|--0-----0-----0-|--0-----0-------|--0-----0-----0-|--0-----0-------|
|----0-----0-----|----0-----0-----|----0-----0-----|----0-----0-----|
|----------------|----------------|0---------------|0---------------|
|0---------------|0---------------|----------------|----------------|

|----------------|----------------|----------------|----------------|
|10----9-----7---|10----9-----7---|5-----5-----5---|5-----5-----5---|
|--0-----0-----0-|--0-----0-----0-|--0-----0-----0-|--0-----0-----0-|
|----0-----0-----|----0-----0-----|----0-----0-----|----0-----0-----|
|----------------|----------------|----------------|----------------|
|9---------------|7---------------|5---------------|5---------------|



|----------------|----------------|----------------|
|5-----5-----5---|5-----5-----5---|5---------------|
|--0-----0-----0-|--0-----0-----0-|----------------|
|----0-----0-----|----0-----0-----|----------------|
|----------------|----------------|----------------|
|5---------------|5---------------|5---------------|
            
Submit corrections

comments powered by Disqus
↑ Back to top | Weakerthans Tabs for Fallow. Lyrics for acoustic guitar and electric guitar. Tablatures and chords are parodies/interpretations of the original songs. You may use it for private study, scholarship, research or language learning purposes only