» » »

Weakerthans, Elegy For Eleaber Tabs (ver.1)

Artists:  A B C D E F G H I J K L M N O P Q R S T U V W X Y Z # 

Elegy For Eleaber Tabs (ver.1)

Weakerthans Tabs
Rating:
3/5 (1 vote)
Elegy For Eleaber lessons Tabs too difficult? Try these video lessons and learn fast
                -------------------------------------------------------------------------------
Elegy for Elsabet – The Weakerthans
-------------------------------------------------------------------------------


This is what jason tait plays, the leads, john sampson just strums the chords so
find a friend to strum with you throught the intro and verse you can use a tremelo
if you have one if not it doesn’t really matter its really a good song to rock out
too cause the lead is so simple the weakerthans are so smart  sorry you’ll have to
get the timeing from the song. The drums are fantastic in this song too.  the A/E
chord may sound funny if your playing it by yourself but trust me its right

Tuning: standard

intro

    E               A            E/A

e|--0-------------0-0-------------0------------------------------------------|
B|--0-------------0-2-------------0------------------------------------------|
G|--1-------------1-2---------42-1----------9--------------------------------|
D|--2---------------2-------------2------------9-----------------------------|
A|--2---------------0-------------0--------------12-11-7---------------------|
E|--0------------------------------------------------------------------------|

Verse:
So your
    E               A            E/A

e|--0---------------0-------------0----------------------------------------|
B|--0---------------2-------------0----------------------------------------|
G|--1---------------2-------------1----------9-----------------------------|
D|--2---------------2-------------2------------9---------------------------|
A|--2---------------0-------------0--------------12-11-7-------------------|
E|--0----------------------------------------------------------------------|

fields are stubble gardens done, were the scary scarecrow stands sees her holding up 
with her hands.  Shes so

    E               A            E/A

e|--0---------------0-------------0------------------------------------------|
B|--0---------------2-------------0------------------------------------------|
G|--1---------------2---------42-1-------------------------------------------|
D|--2---------------2-------------2------------------------------------------|
A|--2---------------0-------------0------------------------------------------|
E|--0------------------------------------------------------------------------|

Tired of reading daddys lips that essay on a frown, watch her memories of human voices 
  Let horsy

   C#/A              B                 E                   A

Chorus:

e|-------------------------------------------------------------------------|
B|-------------------------------------7h9---------------------------------|
G|-------------------------------------7h9---------------------------------|
D|-5-4-5-4-5-4-5-4---9-9-9-9-9-9-9-9---7h9-9h11p9-6h7p6--7-7-7-7-7-7-7-7---|
A|-0-0-0-0-0-0-0-0---9-9-9-9-9-9-9-9---7-----------------7-7-7-7-7-7-7-7---|
E|-------------------7-7-7-7-7-7-7-7---------------------5-5-5-5-5-5-5-5---|

    Bray  Break beak between the thunder boom.  make grasses swish

  C#/A              B                 E                   A

e|-------------------------------------------------------------------------|
B|-------------------------------------7h9---------------------------------|
G|-------------------------------------7h9---------------------------------|
D|-5-4-5-4-5-4-5-4---9-9-9-9-9-9-9-9---7h9-9h11p9-6h7p6---7-7-7-7-7-7-7-7--|
A|-0-0-0-0-0-0-0-0---9-9-9-9-9-9-9-9---7------------------7-7-7-7-7-7-7-7--|
E|-------------------7-7-7-7-7-7-7-7----------------------5-5-5-5-5-5-5-5--|

Nieth the cricket wing.    Let every

   C#/A              B                 E                  A

e|----------------------------------------------0-0-0-----0----------------|
B|-------------------------------------7h9—-----5-4-0/2-0-0------let it----|
G|-------------------------------------7h9--------------4-1-----feed back--|
D|-5-4-5-4-5-4-5-4---9-9-9-9-9-9-9-9---7h9----------------2----------------|
A|-0-0-0-0-0-0-0-0---9-9-9-9-9-9-9-9---7------------------0----------------|
E|-------------------7-7-7-7-7-7-7-7---------------------------------------|

Sound consicrate our wispering   the words that betta never heard

Solo bit
   E                     A                     A/E

e|----------------------------------------------5--------------------------|
B|-9---9----------------------------------------5--------------------------|
G|-9---9--------------------7--------7----------6--------9-8---------------|
D|-9---9--------7/9-------9---9-9/11------2/7-6-7--------x-x-9/11-9-9^-----|
A|-7------------5/7-11-9------------------------7--------7-7-x----x-x------|
E|-----------0----------------------------------5------------7/9--7-7------|

 Verse:                                                              So the

    E               A            E/A

e|--0---------------0-------------0----------------------------------------|
B|--0---------------2-------------0----------------------------------------|
G|--1---------------2-------------1-----------------------9----------------|
D|--2---------------2-------------2-------------------------9--------------|
A|--2---------------0-------------0---------------------------12-11-7------|
E|--0----------------------------------------------------------------------|

  Back lanes tie the city down a mess of dirty string winter dies the same way every spring. As the

    E               A            E/A

e|--0---------------0-------------0------------------------------------------|
B|--0----------0----2-------------0------------------------------------------|
G|--1----------1----2---------42-1-------------------------------------------|
D|--2---------------2-------------2------------------------------------------|
A|--2---------------0-------------0------------------------------------------|
E|--0------------------------------------------------------------------------|


Sky tries on its uniform of turned off t.v. grey and ways we watched her watch us walk away. Let every
C#/A              B                 E                   A

e|-------------------------------------------------------------------------|
B|-------------------------------------7h9---------------------------------|
G|-------------------------------------7h9---------------------------------|
D|-5-4-5-4-5-4-5-4---9-9-9-9-9-9-9-9---7h9-9h11p9-6h7p6---7-7-7-7-7-7-7-7--|
A|-0-0-0-0-0-0-0-0---9-9-9-9-9-9-9-9---7------------------7-7-7-7-7-7-7-7--|
E|-------------------7-7-7-7-7-7-7-7----------------------5-5-5-5-5-5-5-5--|

Rain clatter down on growning streets make foot steps

C#/A              B                 E                  A               B

e|----------------------------------------------0-0-0-----0----------------|
B|-------------------------------------7h9—-----5-4-0/2-0-0----------------|
G|-------------------------------------7h9--------------4-1----------------|
D|-5-4-5-4-5-4-5-4---9-9-9-9-9-9-9-9---7h9----------------2----------------|
A|-0-0-0-0-0-0-0-0---9-9-9-9-9-9-9-9---7------------------0----------------|
E|-------------------7-7-7-7-7-7-7-7---------------------------------------|

Tick, talk to echoed walls.     Let every sound consecrate our wispering the words that 
never heard.

Wirly wind solo on guitar

E                      A                      A/E

e|-------------------------------------------------------------------------|
B|---------12-14-12~~~-14-12~~~~-h14-12-14-12------12------12----12-14-12--|
G|13~~~~~~~-----------------------------------13~~~--13~~~~--13~~~-------13|
D|-------------------------------------------------------------------------|
A|-------------------------------------------------------------------------|
E|-------------------------------------------------------------------------|

Guitar solo
   E                   A                  A/E

e|----------------------------------------4-4------------------------------|
B|---------------------------------5------5-5-----------5------------------|
G|-9-----4/9-8---------6-6----------------6-6------------------9-8---------|
D|-9-----------8/11-9--7-7-6-7-6-4--------6-6-6-7-6-4-4--------x-x-9/11-9^-|
A|-7-------------------7-7-0-0-0-0---7-7--0-0-0-0-0-0-----7-7--7-7-x----x--|
E|-7-------------------5-5-----------------------------------------7/9--7--|

Chorus: but played softly
                                                               Let every
  C#/A              B                 E                  A
e|-------------------------------------------------------------------------|
B|-------------------------------------------------------------------------|
G|-------------------------------------------------------------------------|
D|-------------------------------------------------------------------------|
A|-------------------------------------------------------------------------|
E|-------------------------------------------------------------------------|

Wind howl and creek a creeking doors. To rooms that

 C#/A              B                 E                  A
e|---12---------------11---------------------------------------------------|
B|------------------------------------10---9-------9-----------------------|
G|-9----------------8--------------------------11--------9-----------------|
D|-------------------------------------------------------------------------|
A|-------------------------------------------------------------------------|
E|-------------------------------------------------------------------------|

  To much has happened in  let every

  C#/A              B                 E                  A             B
e|---12---------------11---------------------------------------------------|
B|------------------------------------10---9-------9-----------------------|
G|-9----------------8--------------------------11--------9-----------------|
D|-------------------------------------------------------------------------|
A|-------------------------------------------------------------------------|
E|-------------------------------------------------------------------------|

   sound Consicrate our wispering. The words that beta never heard

| /  slide up
|   slide down
| h  hammer-on
| p  pull-off
| ~  vibrato
| +  harmonic
| x  Mute note
===============================================================================
            

comments powered by Disqus
↑ Back to top | Weakerthans Tabs for Elegy For Eleaber. Lyrics for acoustic guitar and electric guitar. Tablatures and chords are parodies/interpretations of the original songs. You may use it for private study, scholarship, research or language learning purposes only