>
 >
Aside

Aside Bass Tabs

Weakerthans - Aside chords, tabs, tablatures, lyrics

Guitar lessons | Add/correct | Request | Top 50 tabs Artists:  A B C D E F G H I J K L M N O P Q R S T U V W X Y Z 0-9

Aside Bass Tabs – Weakerthans

CD, Sheet music, Poster

Do you like Aside? Share with your friends now
Bass TabsBass Tabs v2ChordsTabsTabs v2Ukulele
-----------------------------------------------------------------------------
-----------------------------------------------------------------------------


Tuning: EADG

| /  slide up
| \  slide down
| h  hammer-on
| p  pull-off
| x  Mute note


Intro
G|---------------------------------------------------------------------|
D|-5-5-5-5-5-5-5-5-----------------------------------------------------|
A|-----------------5-5-5-5-5-5-5-5-3-3-3-3-3-x-3-3-3-3-3-3-3-x-3-3-----|
E|---------------------------------------------------------------------| x2



Verse
G|---------------------------------------------------------------------|
D|---------------------------------------------------------------------|
A|-----------------222222222222222255555555555555553333333333333333----|
E|-3333333333333333----------------------------------------------------| 
"Measure me in metered lines..."

G|---------------------------------------------------------------------|
D|---------------------------------------------------------------------|
A|-----------------222222222222222255555555555555553333333333333333----|
E|-3333333333333333----------------------------------------------------| 

G|-------------------------------------|
D|-------------------------------------|
A|-55555555333333332222222200000000----|
E|-------------------------------------|
"So much better than I used to be"



Intro Again
G|--------------------------------------------------------------------|
D|-5-5-5-5-5-5-5-5----------------------------------------------------|
A|-----------------5-5-5-5-5-5-5-5-3-3-3-3-3-x-3-3-3-3-3-3-3-x-3-3----|
E|--------------------------------------------------------------------| x2



Verse 2
G|----------------------------------------------------------------------|
D|---------------------------------------------------------3---3--------|
A|-----------------2222222222222222555555555555555533333333-333-333-----|
E|-3333333333333333-----------------------------------------------------|
"Terrified of telephones..."

G|----------------------------------------------------------------------|
D|----------------------------------------------------------------------|
A|-----------------222222222222222255555555555555553333333333333333-----|
E|-3333333333333333-----------------------------------------------------|

G|-------------------------------------|
D|-------------------------------------|
A|-55555555333333332222222200000000----|
E|-------------------------------------|
"In love with love and lousy poetry"



Chorus
G|------------------------------------------------------------------------|
D|---------------------------------2222222222222222-----------------------|
A|-----------------3333333333333333----------------3333333333333333-------|
E|-3333333333333333-------------------------------------------------------|
"And I'm leaning on this broken fence..."

G|------------------------------------------------------------------------|
D|---------------------------------2222222222222222-----------------------|
A|-----------------3333333333333333----------------3333333333333333-------|
E|-3333333333333333-------------------------------------------------------|

G|-------------------|
D|--2----------------|
A|----------5--------|
E|-------------------|
"...almost feels okay"



Intro Again
G|--------------------------------------------------------------------|
D|-5-5-5-5-5-5-5-5----------------------------------------------------|
A|-----------------5-5-5-5-5-5-5-5-3-3-3-3-3-x-3-3-3-3-3-3-3-x-3-3----|
E|--------------------------------------------------------------------| x2



Bridge (bass slows down)
G|--------------------------------------------------|
D|--------------------------------------------------|
A|--2--2--2--2--2--2--2--2--5--5--5--5--5--5--5--5--|
E|--------------------------------------------------|
"Circumnavigate this body.."

G|---------------------------------------------------------|
D|-2--2--2--2----------------------------------------------|
A|-------------5--5--5--5--3--3--3--3--3--3--3--3----------|
E|---------------------------------------------------------|

G|--------------------------------------------------|
D|--------------------------------------------------|
A|--2--2--2--2--2--2--2--2--5--5--5--5--5--5--5--5--|
E|--------------------------------------------------|

G|------------------------------------------------------------------------|
D|-2--2--2--2-------------------------------------------------------------|
A|-------------5--5--5--5--33333333333333333333333333333333---------------|
E|------------------------------------------------------------------------|

G|-------------------------------------|
D|-------------------------------------|
A|-5555555533333333222222220-----------|
E|-------------------------------------|
"I spread those maps out on my bedroom floor"



Chorus
G|------------------------------------------------------------------------|
D|---------------------------------2222222222222222-----------------------|
A|-----------------3333333333333333----------------3333333333333333-------|
E|-3333333333333333-------------------------------------------------------|
"And I'm leaning on this broken fence..."

G|------------------------------------------------------------------------|
D|---------------------------------2222222222222222-----------------------|
A|-----------------3333333333333333----------------3333333333333333-------|
E|-3333333333333333-------------------------------------------------------|

G|-------------------|
D|--2----------------|
A|----------5--------|
E|-------------------|
"...it feels okay"

G|--------------------------------------------------------------------|
D|-5-5-5-5-5-5-5-5----------------------------------------------------|
A|-----------------5-5-5-5-5-5-5-5-3-3-3-3-3-x-3-3-3-3-3-3-3-x-3-3----|
E|--------------------------------------------------------------------|
"And I'm leaving with goodbye..."

G|--------------------------------------------------------------------|
D|-5-5-5-5-5-5-5-5----------------------------------------------------|
A|-----------------5-5-5-5-5-5-5-5-3-3-3-3-3-x-3-3-3-3-3-3-3-x-3-3----|
E|--------------------------------------------------------------------|

G|------------------------------------------------------------------|
D|------------------------------------------------------------------|
A|-7-7-7-7-7-7-7-7-5-5-5-5-5-5-5-5-7-7-7-7-7-7-7-7-5-5-5-5-5-5-5-5--|
E|------------------------------------------------------------------|
"With the last ways left..."

G|-------------------------------------|
D|-------------------------------------|
A|-7-7-7-7-7-7-7-7-5-5-5-5-5-5-5-5-----|
E|---------------------------------3~~~|





Comments


Popular Weakerthans tabs & chords
Everything Must Go! Bass Tabs
Airport Lounge Chords
Anchorless Chords
Bigfoot 1 Chords
Civil Twilight Chords
Illustrated Bible Stories For Children Chords
Left And Leaving Chords
Reconstrution Site Chords
Virtute The Cat Explains Her Departure Chords
Aside 1 Tabs


Song lyrics



↑ Back to top | Tablatures and chords are parodies/interpretations of the original songs. You may use it for private study, scholarship, research or language learning purposes only
© 2014 AZChords.com Contact us | Privacy policy | DMCA | Add/correct tabs | Request tabs | Top 50 tabs