>
 >
Perfect Lie

Perfect Lie Guitar Tabs

Wayne Jackson - Perfect Lie chords, tabs, tablatures, lyrics

Guitar lessons | Add/correct | Request | Top 50 tabs Artists:  A B C D E F G H I J K L M N O P Q R S T U V W X Y Z 0-9

Perfect Lie Guitar Tabs – Wayne Jackson

CD, Sheet music, Poster

Do you like Perfect Lie? Share with your friends now
Tabs
Wayne Jackson - Perfect lie
============================
18-06-2010


   E   A   H  fis  A'  a   
1:-0-|-0-|-7-|-2-|-5-|-5-|
2:-0-|-2-|-7-|-2-|-5-|-5-|
3:-1-|-2-|-8-|-2-|-6-|-5-|
4:-2-|-2-|-9-|-4-|-7-|-7-|
5:-2-|-0-|-9-|-4-|-7-|-7-|
6:-0-|-0-|-7-|-2-|-5-|-5-|





Intro: E Emaj9 A  E Emaj9 A 


1. Strophe:

 
E                            A
While I was sleeping I came closer,
E                        A
And felt sensations overflow
fis               H    fis           H
With every stolen move that she may apply,
A'                       a                  E 
And the words she spun beneath the starless sky 
H                A'
she is a perfect lie



2.Strophe:

E                           A
While I was sleeping I grew colder
E                            A
But when I wake I'll let her know
fis             H    fis               H
And resistance fails when she walks on by
A'                a                   E
she's an actress, oh she'll leave you dry
H               A'
she's a perfect lie



Refrain:

E             fis     A                  E
You're like a disease and the fever's raging
E                           fis   A                E
You bring the world to it's knees as you're disengaging
E                fis   A                    E
And you feel no shame from the war you're waging
E                fis A             E
you're a perfect lie at the wrong occasion


E    fis
Yeaahhhhhh, 
A            E
yeah, yeah, yeah
E          fis
Yeah,Yeah, yeah
A                E
Yeah, yeah,yeah, yeah (and so on ... =))


E

======================================================

Intro:

2x

  E                 Emaj9               A

1:---------0-----------------2--------|------5-2-5-4-2------|
2:-------0---0-------------0---0------|----------------5-2--|
3:-----1-------1---------1-------1----|---------------------|
4:---2-----------2-----2-----------2--|---2-----------------|
5:------------------------------------|-0-------------------|
6:-0----------------0-----------------|---------------------|


Strophen:

   E                                      A6

1:---------0------------------0--------|---------2------------------2----------|
2:-------0---0--------------0---0------|-------2---2--------------2---2--------|
3:-----1-------1----------1-------1----|-----2-------2----------2-------2------|
4:---2-----------2------2-----------2--|---2-----------2------2-----------2----|
5:-------------------------------------|-0------------------0------------------|
6:-0-----------------0-----------------|---------------------------------------|


   E                                      A6

1:---------0------------------0--------|---------2------------------2----------|
2:-------0---0--------------0---0------|-------2---2--------------2---2--------|
3:-----1-------1----------1-------1----|-----2-------2----------2-------2------|
4:---2-----------2------2-----------2--|---2-----------2------2-----------2----|
5:-------------------------------------|-0------------------0------------------|
6:-0-----------------0-----------------|---------------------------------------|


  fis                 H                  fis               H

1:---------2------------------7--------|---------2-----------------7-----------|
2:-------2---2--------------7---7------|-------2---2-------------7---7---------|
3:-----2-------2----------8-------8----|-----2-------2---------8-------8-------|
4:---4-----------4------9-----------9--|---4-----------4-----9-----------9-----|
5:-------------------------------------|---------------------------------------|
6:-2------------------7----------------|-2-----------------7-------------------|

  
  
   A'                 a                   E                   H              
1:----------5-----------------5--------|---------0------------------7----------|
2:--------5---5-------------5---5------|-------0---0--------------7---7--------|
3:------6-------6---------5-------5----|-----1-------1----------8-------8------|
4:----7-----------------7-----------7--|---2-----------2------9-----------9----|
5:-------------------------------------|---------------------------------------|
6:-5------------------5----------------|-1-----------------7-------------------|


  A'




Refrain:

4x
  
  E                 fis                 A                E

1:---------0-----------------2--------|---------2-----------------0--------|
2:-------0---0-------------2---2------|-------2---2-------------0---0------|
3:-----1-------1---------2-------2----|-----2-------2---------1-------1----|
4:---2-----------2-----4-----------4--|---2-----------2-----2-----------2--|
5:------------------------------------|-0----------------------------------|
6:-0----------------2-----------------|------------------0-----------------|




Yeah - Part:

   E        fis        A        E

1:-4-2-4-2--5-4-5-4--|-5-4-5-4--4-2-4-2-|
2:-------------------|------------------|
3:-------------------|------------------|
4:-------------------|------------------|
5:-------------------|------------------|
6:-------------------|------------------|





Comments


Popular Wayne Jackson tabs & chords
Hallelujah Chords
Wish You Were Here Chords
Your Stars Never Shine Chords
Hallelujah Tabs
Hallelujah Ukulele
Wish You Were Here Ukulele
Your Stars Never Shine Ukulele


Song lyrics



↑ Back to top | Tablatures and chords are parodies/interpretations of the original songs. You may use it for private study, scholarship, research or language learning purposes only
© 2014 AZChords.com Contact us | Privacy policy | DMCA | Add/correct tabs | Request tabs | Top 50 tabs