» » »

So Bored Tabs (ver.4)

Artists:  A B C D E F G H I J K L M N O P Q R S T U V W X Y Z # 

So Bored Tabs (ver.4)

Wavves
Rating:
0/5 (0 votes)

Hard to play? Try these video lessons and learn fast.
                So Bored - Wavves

Intro:

e-----------0-------------|
B------------0------------|
G---2---------------6--7--|
D---2---------------6--7--|
A---0---------------4--5--|
E-------------------------|


e-------------------|
B-------------------|
G--2-----6----7-----|
D--2 x16 6 x8 7 x8 -|
A--0-----4----5-----|
E-------------------|



Chorus: 

e----------------------|
B----------------------|
G-2----6---------7-----|
D-2 x8 6 x8 4----7 x8--|
A-0----4----4 x8 5-----|
E-----------2----------|x2

Ending Solo:

e------------------------------------------------------------------|
B------------------------------------------------------------------|
G------------------------------------------------------------------|
D--4-6-4-6-4-6-4-6\9-6--4-6-4-6-4-6-4-6\9--6-4-6-4-6-4-6-4-6\9--6--|
A------------------------------------------------------------------|
E------------------------------------------------------------------|

e---------------|
B---------------|
G---------------|
D--4-6-4-6-4-2--|
A---------------|
E---------------|

e------------------|
B------------------|
G--4 x16 6 x8 6\9--|
D------------------|
A------------------|
E------------------|

| \   slide down
            
Hard to play? Try these video lessons and learn fast. | Correct




comments powered by Disqus
↑ Back to top | Tablatures and chords are parodies/interpretations of the original songs. You may use it for private study, scholarship, research or language learning purposes only