» » »

Side Yr On Tabs (ver.1)

Artists:  A B C D E F G H I J K L M N O P Q R S T U V W X Y Z # 

Side Yr On Tabs (ver.1)

Wavves
Rating:
0/5 (0 votes)

Hard to play? Try these video lessons and learn fast.
                -------------------------------------------------------------------------------
-------------------------------------------------------------------------------

Tuning: Standard

Verse

e|-------------|
B|-------------|
G|-1-1-5-5-5-5-|
D|-2-2-6-6-6-6-|
A|-2-2-6-6-6-6-|
E|-----4-4-4-4-|
  "call my momm"

Chorus

e|-------------|
B|-----2-2-2-2-|
G|-1-1-1-1-1-1-|
D|-2-2-2-2-2-2-|
A|-2-2---------|
E|-------------|
  "ooooooooohhh"

Repeat this twice. For the third Verse palm mute the chords.
On the final Chorus you can throw in some heavy overdrive and just thrash the chords.

Verse
Chorus
Verse
Chorus
Verse (Palm Mute)
Chorus into Freakout/End
            
Hard to play? Try these video lessons and learn fast. | Correct




comments powered by Disqus
↑ Back to top | Tablatures and chords are parodies/interpretations of the original songs. You may use it for private study, scholarship, research or language learning purposes only