» » »

Wavves, Post Acid Bass tabs (ver.1)

Artists:  A B C D E F G H I J K L M N O P Q R S T U V W X Y Z # 

Post Acid Bass tabs (ver.1)

Wavves Tabs
 Rating:
4/5 (4 votes)
Post Acid lessons Tabs too difficult? Try these video lessons and learn fast
1
                Couldn't find a tab for this anywhere, here you go,Sorry if its a bit wrong, first tab

______________________________________________________
 Band: WaVVes


All lyrics and all that legal stuff go to wavves and nathan williams
______________________________________________________

the bassline kicks in around 0:08 , after the feedback bit at the beginning with the main riff:


G --------------------------------------------------------------|
D --------------------------------------------------------------|
A --------------------------------------------------------------|  X2
E -0-00-00-7-0-5-0-0-00-00-70-5--0-00-00-7-0-5-0-0-00-00-70-5---|


Then, the pre chorus bit as it comes up to
  'i'm, just havin fun '
G ----------1---------------------------------------------|
D -4-44-44-4--42------------------------------------------|
A ---------------4-44-44-4-4-4-2--------------------------|  X2
E --------------------------------------------------------|

Short pause then start with chorus riff as it Nathan sings

'With Yoooooooooooooooooooou'
G --------------------------------------------------------------|
D --------------------------------------------------------------|
A --------------------------------------------------------------|  X2
E -0-00-00-7-0-5-0-0-00-00-7777--0-00-00-7-0-5-0-0-00-00-7777---|

THen straight into main riff again

'Hold my hand..'

G --------------------------------------------------------------|
D --------------------------------------------------------------|
A --------------------------------------------------------------|  X2
E -0-00-00-7-0-5-0-0-00-00-70-5--0-00-00-7-0-5-0-0-00-00-70-5---|

Then back to pre chorus again

'That i'm just having fuun'

G ----------1---------------------------------------------|
D -4-44-44-4--42------------------------------------------|
A ---------------4-44-44-4-4-4-2--------------------------|  X2
E --------------------------------------------------------|

Back to chorus,
'With Yoooooooooooooooooooou'
G --------------------------------------------------------------|
D --------------------------------------------------------------|
A --------------------------------------------------------------|  X2
E -0-00-00-7-0-5-0-0-00-00-7777--0-00-00-7-0-5-0-0-00-00-7777---|

Then to bridge

'ooh ooh..'
G -----------------------------------------------------------|
D -----------------------------------------------------------|
A -----------------------------------------------------------|
E -7--2--0--7-7--2--0--7-7--2--0--7-7--2--0--7---------------|


Then to outro


G -1----------------1--------------------------------------------|
D --4-21-------------4-21----------------------------------------|
A -------42-4--4444-------42-4---4444----------------------------|
E -----------4----------------4----------------------------------|


G -1----------------1-------------------------------------------|
D --4-21-------------4-21---------------------------------------|
A -------42-4--4444-------42-4---4444444444444444---------------|
E -----------4----------------4---------------------------------|

Cheers , Hope it was helpful, comment for mistakes or improvement
please rate

Ash.
            
Submit corrections

comments powered by Disqus
↑ Back to top | Wavves Bass for Post Acid. Lyrics for acoustic guitar and electric guitar. 1 Tablatures and chords are parodies/interpretations of the original songs. You may use it for private study, scholarship, research or language learning purposes only