» » »

Wavves, In The Sand Tabs (ver.1)

Artists:  A B C D E F G H I J K L M N O P Q R S T U V W X Y Z # 

In The Sand Tabs (ver.1)

Wavves Tabs
 Rating:
4/5 (4 votes)
In The Sand lessons Tabs too difficult? Try these video lessons and learn fast
1
                -------------------------------------------------------------------------------
-------------------------------------------------------------------------------

Tuning: Standard

Verse:

e|---------|
B|---------|
G|-3-3-1-1-|
D|-4-4-2-2-|
A|-4-4-2-2-|
E|-2-2-----|
"say what you wanna say..."

Chorus:
e|----------------------------------------------------------|
B|----------------------------------------------------------|
G|-6-----------------------------------------3-3-1-1-3-3-1-1| X2
D|-7-----------------------------------------4-4-2-2-4-4-2-2|
A|-7-----------------------------------------4-4-2-2-4-4-2-2|
E|-5-----------------------------------------2-2-----2-2----|
"lie, lie, lie, lie, lie with my head in the sand"

Second Chorus:
e|----------------|
B|----------------|
G|-3-3-1-1-3-3-1-1|
D|-4-4-2-2-4-4-2-2|
A|-4-4-2-2-4-4-2-2|
E|-2-2-----2-2----|
"in the sand, in the sand"

The Second Chorus is basically the verse chords. But I just labeled it differently so it 
doesn't get confusing. And if the change made it confusing then I'll just shoot myself 
in the foot.

Play Clean:
Verse
Chorus

Distortion:
Verse
Chorus
Second Chorus
Verse
Chorus
Second Chorus

Clean (quiet)
Second Chorus, Then just go heavy with distortion till end.
            
Submit corrections

comments powered by Disqus
↑ Back to top | Wavves Tabs for In The Sand. Lyrics for acoustic guitar and electric guitar. 1 Tablatures and chords are parodies/interpretations of the original songs. You may use it for private study, scholarship, research or language learning purposes only