» » »

Wavves, Idiot Tabs (ver.1)

Artists:  A B C D E F G H I J K L M N O P Q R S T U V W X Y Z # 

Idiot Tabs (ver.1)

Wavves Tabs
 Rating:
4.2/5 (5 votes)
Idiot lessons Tabs too difficult? Try these video lessons and learn fast
1
                laugh, i bet you laugh
i bet you laugh right behind my back
i wont ever die
ill go surfing in my mind:
e:---------------------x-----------------|
b:---------------------x-----------------|
g:-3-3-3-3-3-3-3-3-3-3-x-3-3-3-3-3-3-3-3-|
D:-4-4-4-4-4-4-4-4-4-4-x-4-4-4-4-4-4-4-4-|  X2
A:-4-4-4-4-4-4-4-4-4-4-x-4-4-4-4-4-4-4-4-|
E:-2-2-0-2-2-0-2-2-0-2-x-2-2-0-2-2-0-2-2-                                            

im not supposed to be a kid:    but im an idiot:
                               e:---------------------|
e:---------|                   b:---------------------|
b:---------|                   g:-3-3-3-3-3-3-3-3-3-3-|
g:-2-2-2-2-|                   D:-4-4-4-4-4-4-4-4-4-4-|
D:-2-2-2-2-|                   A:-4-4-4-4-4-4-4-4-4-4-| 
A:-1-1-1-1-|                   E:-2-2-0-2-2-0-2-2-2-0-|
E:-0-0-0-0-|                    
                               
                               
im say im sorry           but it wouldnt mean sh*t(x4)
e:---------|               e:---------------------|    
B:---------|               B:---------------------|
G:-2-2-2-2-|               G:-3-3-3-3-3-3-3-3-3-3-|
D:-2-2-2-2-|               D:-4-4-4-4-4-4-4-4-4-4-|
A:-1-1-1-1-|               A:-4-4-4-4-4-4-4-4-4-4-|
E:-0-0-0-0-|               E:-2-2-2-2-2-2-2-2-2-2-|
 
has my skull just cracked
i didnt bother listening to the rest 
i wont ever die
im a hero in my mind 

e:---------------------x-----------------|
b:---------------------x-----------------|
g:-3-3-3-3-3-3-3-3-3-3-x-3-3-3-3-3-3-3-3-|
D:-4-4-4-4-4-4-4-4-4-4-x-4-4-4-4-4-4-4-4-|  X2
A:-4-4-4-4-4-4-4-4-4-4-x-4-4-4-4-4-4-4-4-|
E:-2-2-0-2-2-0-2-2-0-2-x-2-2-0-2-2-0-2-2-| 
 
im not supposed to be a kid:    but im an idiot:
                               e:---------------------|
e:---------|                   b:---------------------|
b:---------|                   g:-3-3-3-3-3-3-3-3-3-3-|
g:-2-2-2-2-|                   D:-4-4-4-4-4-4-4-4-4-4-|
D:-2-2-2-2-|                   A:-4-4-4-4-4-4-4-4-4-4-| 
A:-1-1-1-1-|                   E:-2-2-0-2-2-0-2-2-0-2-| 
E:-0-0-0-0-|    

im say im sorry           but it wouldnt mean sh*t(x4)
e:---------|               e:---------------------|    
B:---------|               B:---------------------|
G:-2-2-2-2-|               G:-3-3-3-3-3-3-3-3-3-3-|
D:-2-2-2-2-|               D:-4-4-4-4-4-4-4-4-4-4-|
A:-1-1-1-1-|               A:-4-4-4-4-4-4-4-4-4-4-|
E:-0-0-0-0-|               E:-2-2-2-2-2-2-2-2-2-2-|  

e:---------------------------|
b:---------------------------|
g:-8-8-11-11-8-11-8-8-11-11-8|
D:-9-9-12-12-7-12-9-9-12-12-9|  X2
A:-9-9-12-12-7-12-9-9-12-12-9|
E:-7-7-10-10-7-10-7-7-10-10-7|
                
            
Submit corrections

comments powered by Disqus
↑ Back to top | Wavves Tabs for Idiot. Lyrics for acoustic guitar and electric guitar. 1 Tablatures and chords are parodies/interpretations of the original songs. You may use it for private study, scholarship, research or language learning purposes only