» » »

Hula Hoop Tabs (ver.1)

Artists:  A B C D E F G H I J K L M N O P Q R S T U V W X Y Z # 

Hula Hoop Tabs (ver.1)

Wavves
Rating:
0/5 (0 votes)

Hard to play? Try these video lessons and learn fast.
                -----------------------------------------------------------------------------
-----------------------------------------------------------------------------

Tuning:EADGBe

 |      Part 1     |Part 2 |        Part 3      |   Part 4   | Part 5|
e|-5-----5----3----|-5-----|-5-----5------3-----|-5----5-----|-3-----|
B|-5-----6----4----|-5-----|-5-----6------4-----|-5----6-----|-4-----|
G|-6-x4--7-x2-5-x2-|-6-x24-|-6-x10-7-x10--5--x7-|-6-x4-7-x4--|-5-----|
D|-7-----7----5----|-7-----|-7-----7------5-----|-7----7-----|-5-----|
A|-7-----5----3----|-7-----|-7-----5------3-----|-7----5-----|-3-----|
E|-5---------------|-5-----|-5------------------|-5----------|-3-----|

                       For the solo, pick some of the chords in this
                       tab and strum them fast and slide them around.
Part 1 x10
Part 2
Part 1 x10
Part 3
----------|
Part 4 x3 |Repeat Part 4 and Part 3 fives times.
Part 5    |
----------|
Part 1 x15
Part 2
----------|
Part 4 x3 |Repeat Part 4 and Part 3 fives times.
Part 5    |
----------|
Part 1 x2
Solo

Ok I tried to tab this as well as I could. Listen to the song for rhythm. It's an easy 
to learn. Nathan repeat parts of the song a lot, so i tried to write it out the best I could.

************************************

| /   slide up
| \   slide down
| h   hammer-on
| p   pull-off
| ~   vibrato
| +   harmonic
| x   Mute note
| b   Bend
| pb  Pre-bend
| br  Bend release
| pbr Pre-bend release
| brb Bend release bend

************************************
            
Hard to play? Try these video lessons and learn fast. | Correct




comments powered by Disqus
↑ Back to top | Tablatures and chords are parodies/interpretations of the original songs. You may use it for private study, scholarship, research or language learning purposes only