» » »

Wavves, Hippies Is Punks Tabs (ver.1)

Artists:  A B C D E F G H I J K L M N O P Q R S T U V W X Y Z # 

Hippies Is Punks Tabs (ver.1)

Wavves Tabs
 Rating:
4/5 (4 votes)
Hippies Is Punks lessons Tabs too difficult? Try these video lessons and learn fast
1
                Hippies is Punks
Wavves
jjjddd

half step down tuning 

intro/verse
Eb|-------------------------------------------------------------|
Bb|------8------------8-----------------------------------------|
Gb|----6------------6-------------------------------------------|
Db|--7---------7--7--------7---11--1111--1111--12--1212--1212---| x4
Ab|---------0------------0-----11--1111--1111--12--1212--1212---|
Eb|----------------------------9---9-9---9-9---10--1010--1010---|

chorus
Eb|-------------------------------------------------------------|
Bb|----------------------------------------------------10101010-|
Gb|----------------------------------------------------11111111-|
Db|--7--7--7-7-7---4-4--4-4-4-4---11-11--111111--12-12-12121212-| x2
Ab|--7--7--7-7-7---4-4--4-4-4-4---11-11--111111--12-12-12121212-|
Eb|--5--5--5-5-5---2-2--2-2-2-2---9--9---9-9-9---10-10-10101010-|

verse
Eb|-------------------------------------------------------------|
Bb|------8------------8-----------------------------------------|
Gb|----6------------6-------------------------------------------|
Db|--7---------7--7--------7---11--1111--1111--12--1212--1212---| x4
Ab|---------0------------0-----11--1111--1111--12--1212--1212---|
Eb|----------------------------9---9-9---9-9---10--1010--1010---|

chorus
Eb|-------------------------------------------------------------|
Bb|----------------------------------------------------10101010-|
Gb|----------------------------------------------------11111111-|
Db|--7--7--7-7-7---4-4--4-4-4-4---11-11--111111--12-12-12121212-| x4
Ab|--7--7--7-7-7---4-4--4-4-4-4---11-11--111111--12-12-12121212-|
Eb|--5--5--5-5-5---2-2--2-2-2-2---9--9---9-9-9---10-10-10101010-|


bridge (clean, with chorus effect or phaser or some thing jeez gosh)
Eb|-------------------------------------------------------------|
Bb|----------------------------9---9-9---9-9---10--1010--1010---|
Gb|----------------------------10--1010--1010--11--1111--1111---|
Db|----------------------------11--1111--1111--12--1212--1212---|
Ab|----------------------------11--1111--1111--12--1212--1212---|
Eb|----------------------------9---9-9---9-9---10--1010--1010---|

Eb|-------------------------------------------------------------|
Bb|------8------------8--------9---9-9---9-9---10--1010--1010---|
Gb|----6------------6----------10--1010--1010--11--1111--1111---|
Db|--7---------7--7--------7---11--1111--1111--12--1212--1212---| x4
Ab|---------0------------0-----11--1111--1111--12--1212--1212---|
Eb|----------------------------9---9-9---9-9---10--1010--1010---|
                                ^ on the last time turn distortion on here 
chorus

Eb|-------------------------------------------------------------|
Bb|----------------------------------------------------10101010-|
Gb|----------------------------------------------------11111111-|
Db|--7--7--7-7-7---4-4--4-4-4-4---11-11--111111--12-12-12121212-| x2
Ab|--7--7--7-7-7---4-4--4-4-4-4---11-11--111111--12-12-12121212-|
Eb|--5--5--5-5-5---2-2--2-2-2-2---9--9---9-9-9---10-10-10101010-|

solo (sorta)
Eb|-----------------------------------------------------------------|
Bb|-----------------------------------------------------------------|
Gb|--7-7-7-7--6-6-6-6--7-7-7-7--6-6-6-6--9--9--9-7-6-4--4-4---------|
Db|----------------------------------------------------------7-7-7--| x4
Ab|--5-5-5-5--4-4-4-4--5-5-5-5--4-4-4-4--7--7--7-5-4-2--2-4---------|
Eb|----------------------------------------------------------5-5-5--|

ending
Eb|-------------------|
Bb|-------------------|
Gb|--6~~~-------------|
Db|--7~~~-------------|
Ab|--7~~~-------------|
Eb|--5~~~-------------|

real cool song
            
Submit corrections

comments powered by Disqus
↑ Back to top | Wavves Tabs for Hippies Is Punks. Lyrics for acoustic guitar and electric guitar. 1 Tablatures and chords are parodies/interpretations of the original songs. You may use it for private study, scholarship, research or language learning purposes only