» » »

Wavves, Demon To Lean On Tabs (ver.1)

Artists:  A B C D E F G H I J K L M N O P Q R S T U V W X Y Z # 

Demon To Lean On Tabs (ver.1)

Wavves Tabs
 Rating:
4/5 (4 votes)
Demon To Lean On lessons Tabs too difficult? Try these video lessons and learn fast
                VERSE:

you and i...
e|----------------------------------------|
B|----------------------------------------|
G|----------------------------------------|
D|----------------------------------------|
A|---111-----111----111-------------------|
E|222---4222--- 4222---4222---------------|

...pace along the ground..
e|----------------------------------------|
B|----------------------------------------|
G|----------------------------------------|
D|----------------------------------------|
A|---44442222-----------------------------|
E|----------------------------------------|

e|----------------------------------------|
B|----------------------------------------|
G|----------------------------------------|
D|----------------------------------------|
A|---111-----111----111-44442222----------|
E|222---4222--- 4222---4------------------|



BRIDGE:

1x
e|----------------------------------------|
B|----------------------------------------|
G|-6-6-6-6----4-4-4-4---------------------|
D|-6-6-6-6----4-4-4-4---------------------|
A|-4-4-4-4----2-2-2-2---------------------|
E|----------------------------------------|

e|----------------------------------------|
B|----------------------------------------|
G|----------------------------------------|
D|-4-4-4----8-8-8-8-----------------------|
A|-4-4-4----8-8-8-8-----------------------|
E|-2-2-2----6-8-6-6-----------------------|




...and what.s it really worth...
e|---------------------------------------|
B|---------------------------------------|
G|-6-6-6-6--4-4-4-4----------------------|
D|-6-6-6-6--4-4-4-4----4-4-4-8-8-8-8-----|
A|-4-4-4-4--2-2-2-2----4-4-4-8-8-8-8-----|
E|---------------------2-2-2-6-6-6-6-----|


CHORUS:

.....................holding a gun to my head
e|----------------------------------------|
B|----------------------------------------|
G|--------------------6-6-6-4-4-4-4-------|
D|-4-4-4-4-4-4-4-4----6-6-6-4-4-4-4-------|
A|-4-4-4-4-4-4-4-4----4-4-4-2-2-2-2-------|
E|-2-2-2-2-2-2-2-2------------------------| 2x

then:
e|----------------------------------------|
B|----------------------------------------|
G|---------------- -6-6-6-4-4-4-4---------|
D|-4-4-4-8-8-8-8----6-6-6-4-4-4-4---------|
A|-4-4-4-8-8-8-8----4-4-4-2-2-2-2---------|
E|-2-2-2-6-8-6-6--------------------------|


VERSE
BRIDGE
CHORUS

e|----------------------------------------|
B|----------------------------------------|
G|-------6-4--------3-4--------6-4--9-----|
D|-4-4-4-6-4--4-4-4-3-4--4-4-4-6-4--97----|
A|-4-4-4-4-2--4-4-4-1-2--4-4-4-4-2--77----|
E|-2-2-2------2-2-2------2-2-2-------5----|4x


this should help you to figure out the whole songs. have fun
            
Submit corrections

comments powered by Disqus
↑ Back to top | Wavves Tabs for Demon To Lean On. Lyrics for acoustic guitar and electric guitar. Tablatures and chords are parodies/interpretations of the original songs. You may use it for private study, scholarship, research or language learning purposes only