» » »

Wavves, Bug Tabs (ver.2)

Artists:  A B C D E F G H I J K L M N O P Q R S T U V W X Y Z # 

Bug Tabs (ver.2)

Wavves Tabs
Rating:
0/5 (0 votes)
Bug lessons Tabs too difficult? Try these video lessons and learn fast
                

e|---3-5-3-5-3-5-3-5-3-5-3-5\7------------|x3

e|---3-5-3-5-3----------------------------|
B|-------------5-3-0-7-5-3----------------|

you're such a bug to me man you're such a drag on everyone you're such a burned out 
zombie you always suck out all the fun;(hold and slide these chords)


e|---10----9----7----9----------------------------------------------------|
B|---10----9----7----9----------------------------------------------------|
G|---11----10---8----10---------------------------------------------------|
D|---12----11---9----11---------------------------------------------------|
A|---12----11---9----11---------------------------------------------------|
E|---10----9----7----9----------------------------------------------------|

you're no fun                 you're just dumb     you're no    fun
you're no fun
you're no fun
e|---7----9----7----9-------------10-----------------9-----------7-------|
B|---7----9----7----9-------------10-----------------9-----------7-------|
G|---8----10---8----10------------11-----------------10----------8-------|
D|---9----11---9----11------------12-----------------11----------9-------|
A|---9----11---9----11------------12-----------------11----------9-------|
E|---7----9----7----9-------------10------------------9----------7-------|
you're always crashing parties you're always crashing someones car you're always 
crashing on your new girls couch until she finds out who you are


e|---10----9----7----9----------------------------------------------------|
B|---10----9----7----9----------------------------------------------------|
G|---11----10---8----10---------------------------------------------------|
D|---12----11---9----11---------------------------------------------------|
A|---12----11---9----11---------------------------------------------------|
E|---10----9----7----9----------------------------------------------------|

you're no fun                 you're just dumb     you're no    fun
you're no fun
you're no fun
e|---7----9----7----9-------------10-----------------9-----------7-------|
B|---7----9----7----9-------------10-----------------9-----------7-------|
G|---8----10---8----10------------11-----------------10----------8-------|
D|---9----11---9----11------------12-----------------11----------9-------|
A|---9----11---9----11------------12-----------------11----------9-------|
E|---7----9----7----9-------------10------------------9----------7-------|

outtro
e|---3-5-3-5-3-5-3-5-3-5-3-5\7------------|

e|---3-5-3-5-3----------------------------|
B|-------------5-3-0-7-5-3----------------|

e|-7-8-9-7------7-8-9-/-10----------------|


************************************

| /   slide up

************************************
            

comments powered by Disqus
↑ Back to top | Wavves Tabs for Bug. Lyrics for acoustic guitar and electric guitar. Tablatures and chords are parodies/interpretations of the original songs. You may use it for private study, scholarship, research or language learning purposes only