» » »

Wavves, Bug Tabs (ver.1)

Artists:  A B C D E F G H I J K L M N O P Q R S T U V W X Y Z # 

Bug Tabs (ver.1)

Wavves Tabs
 Rating:
4/5 (6 votes)
Bug lessons Tabs too difficult? Try these video lessons and learn fast
                -------------------------------------------------------------------------------
-------------------------------------------------------------------------------

Tuning: Standard

e|---3-5-3-5-3-5-3-5-3-5-3-5\7------------|

x3

e|---3-5-3-5-3----------------------------|
B|-------------5-0-3-5-0-3----------------|

Sustained Bar Chords or Power Chords (G C E C)

e|---3----8----0----8----------------------------------------------------|
B|---3----8----0----8----------------------------------------------------|
G|---4----9----1----9----------------------------------------------------|
D|---5----10---2----10---------------------------------------------------|
A|---5----10---2----10---------------------------------------------------|
E|---3----8----0----8----------------------------------------------------|

Same thing except each chord is played x8.

e|---3----8----0----8----------------------------------------------------|
B|---3----8----0----8----------------------------------------------------|
G|---4----9----1----9----------------------------------------------------|
D|---5----10---2----10---------------------------------------------------|
A|---5----10---2----10---------------------------------------------------|
E|---3----8----0----8----------------------------------------------------|


B|--------------------------------------------------------------------|
G|------------12-12-12------------------------------------------------|
D|---12-12-12-12-12-12-12-12-10---------------------------------------|
A|---12-12-12-10-10-10-12-12-10-(this note x8)------------------------|
E|---10-10-10----------10-10--8---------------------------------------|


e|-7-7-7-8-7-----7-7-7-8-7-10-10----------------------------------------|
B|-----------8-8--------------------------------------------------------|
G|----------------------------------------------------------------------|
D|----------------------------------------------------------------------|
A|----------------------------------------------------------------------|
E|----------------------------------------------------------------------|


************************************

| /   slide up

************************************
            
Submit corrections

comments powered by Disqus
↑ Back to top | Wavves Tabs for Bug. Lyrics for acoustic guitar and electric guitar. Tablatures and chords are parodies/interpretations of the original songs. You may use it for private study, scholarship, research or language learning purposes only